  0
SECTION
  2
HEADER
  9
$ACADVER
  1
AC1015
  9
$ACADMAINTVER
 70
     6
  9
$DWGCODEPAGE
  3
ANSI_932
  9
$INSBASE
 10
0.0
 20
0.0
 30
0.0
  9
$EXTMIN
 10
26.27031822097814
 20
23.95121409284595
 30
0.0
  9
$EXTMAX
 10
374.779622604337
 20
264.125
 30
0.0
  9
$LIMMIN
 10
26.27031822097814
 20
23.95121409284595
  9
$LIMMAX
 10
374.779622604337
 20
264.125
  9
$ORTHOMODE
 70
     0
  9
$REGENMODE
 70
     1
  9
$FILLMODE
 70
     1
  9
$QTEXTMODE
 70
     0
  9
$MIRRTEXT
 70
     1
  9
$LTSCALE
 40
1.0
  9
$ATTMODE
 70
     1
  9
$TEXTSIZE
 40
0.2
  9
$TRACEWID
 40
0.05
  9
$TEXTSTYLE
  7
Standard
  9
$CLAYER
  8
0
  9
$CELTYPE
  6
ByLayer
  9
$CECOLOR
 62
   256
  9
$CELTSCALE
 40
1.0
  9
$DISPSILH
 70
     0
  9
$DIMSCALE
 40
1.0
  9
$DIMASZ
 40
0.18
  9
$DIMEXO
 40
0.0625
  9
$DIMDLI
 40
0.38
  9
$DIMRND
 40
0.0
  9
$DIMDLE
 40
0.0
  9
$DIMEXE
 40
0.18
  9
$DIMTP
 40
0.0
  9
$DIMTM
 40
0.0
  9
$DIMTXT
 40
0.18
  9
$DIMCEN
 40
0.09
  9
$DIMTSZ
 40
0.0
  9
$DIMTOL
 70
     0
  9
$DIMLIM
 70
     0
  9
$DIMTIH
 70
     1
  9
$DIMTOH
 70
     1
  9
$DIMSE1
 70
     0
  9
$DIMSE2
 70
     0
  9
$DIMTAD
 70
     0
  9
$DIMZIN
 70
     0
  9
$DIMBLK
  1

  9
$DIMASO
 70
     1
  9
$DIMSHO
 70
     1
  9
$DIMPOST
  1

  9
$DIMAPOST
  1

  9
$DIMALT
 70
     0
  9
$DIMALTD
 70
     2
  9
$DIMALTF
 40
25.4
  9
$DIMLFAC
 40
1.0
  9
$DIMTOFL
 70
     0
  9
$DIMTVP
 40
0.0
  9
$DIMTIX
 70
     0
  9
$DIMSOXD
 70
     0
  9
$DIMSAH
 70
     0
  9
$DIMBLK1
  1

  9
$DIMBLK2
  1

  9
$DIMSTYLE
  2
Standard
  9
$DIMCLRD
 70
     0
  9
$DIMCLRE
 70
     0
  9
$DIMCLRT
 70
     0
  9
$DIMTFAC
 40
1.0
  9
$DIMGAP
 40
0.09
  9
$DIMJUST
 70
     0
  9
$DIMSD1
 70
     0
  9
$DIMSD2
 70
     0
  9
$DIMTOLJ
 70
     1
  9
$DIMTZIN
 70
     0
  9
$DIMALTZ
 70
     0
  9
$DIMALTTZ
 70
     0
  9
$DIMUPT
 70
     0
  9
$DIMDEC
 70
     4
  9
$DIMTDEC
 70
     4
  9
$DIMALTU
 70
     2
  9
$DIMALTTD
 70
     2
  9
$DIMTXSTY
  7
Standard
  9
$DIMAUNIT
 70
     0
  9
$DIMADEC
 70
     0
  9
$DIMALTRND
 40
0.0
  9
$DIMAZIN
 70
     0
  9
$DIMDSEP
 70
    46
  9
$DIMATFIT
 70
     3
  9
$DIMFRAC
 70
     0
  9
$DIMLDRBLK
  1

  9
$DIMLUNIT
 70
     2
  9
$DIMLWD
 70
    -2
  9
$DIMLWE
 70
    -2
  9
$DIMTMOVE
 70
     0
  9
$LUNITS
 70
     2
  9
$LUPREC
 70
     4
  9
$SKETCHINC
 40
0.1
  9
$FILLETRAD
 40
0.5
  9
$AUNITS
 70
     0
  9
$AUPREC
 70
     0
  9
$MENU
  1
.
  9
$ELEVATION
 40
0.0
  9
$PELEVATION
 40
0.0
  9
$THICKNESS
 40
0.0
  9
$LIMCHECK
 70
     0
  9
$CHAMFERA
 40
0.0
  9
$CHAMFERB
 40
0.0
  9
$CHAMFERC
 40
0.0
  9
$CHAMFERD
 40
0.0
  9
$SKPOLY
 70
     0
  9
$TDCREATE
 40
2459135.609338217
  9
$TDUCREATE
 40
2459135.234338217
  9
$TDUPDATE
 40
2459135.609340799
  9
$TDUUPDATE
 40
2459135.234340799
  9
$TDINDWG
 40
0.0000000116
  9
$TDUSRTIMER
 40
0.0000000116
  9
$USRTIMER
 70
     1
  9
$ANGBASE
 50
0.0
  9
$ANGDIR
 70
     0
  9
$PDMODE
 70
     0
  9
$PDSIZE
 40
0.0
  9
$PLINEWID
 40
0.0
  9
$SPLFRAME
 70
     0
  9
$SPLINETYPE
 70
     6
  9
$SPLINESEGS
 70
     8
  9
$HANDSEED
  5
383
  9
$SURFTAB1
 70
     6
  9
$SURFTAB2
 70
     6
  9
$SURFTYPE
 70
     6
  9
$SURFU
 70
     6
  9
$SURFV
 70
     6
  9
$UCSBASE
  2

  9
$UCSNAME
  2

  9
$UCSORG
 10
0.0
 20
0.0
 30
0.0
  9
$UCSXDIR
 10
1.0
 20
0.0
 30
0.0
  9
$UCSYDIR
 10
0.0
 20
1.0
 30
0.0
  9
$UCSORTHOREF
  2

  9
$UCSORTHOVIEW
 70
     0
  9
$UCSORGTOP
 10
0.0
 20
0.0
 30
0.0
  9
$UCSORGBOTTOM
 10
0.0
 20
0.0
 30
0.0
  9
$UCSORGLEFT
 10
0.0
 20
0.0
 30
0.0
  9
$UCSORGRIGHT
 10
0.0
 20
0.0
 30
0.0
  9
$UCSORGFRONT
 10
0.0
 20
0.0
 30
0.0
  9
$UCSORGBACK
 10
0.0
 20
0.0
 30
0.0
  9
$PUCSBASE
  2

  9
$PUCSNAME
  2

  9
$PUCSORG
 10
0.0
 20
0.0
 30
0.0
  9
$PUCSXDIR
 10
1.0
 20
0.0
 30
0.0
  9
$PUCSYDIR
 10
0.0
 20
1.0
 30
0.0
  9
$PUCSORTHOREF
  2

  9
$PUCSORTHOVIEW
 70
     0
  9
$PUCSORGTOP
 10
0.0
 20
0.0
 30
0.0
  9
$PUCSORGBOTTOM
 10
0.0
 20
0.0
 30
0.0
  9
$PUCSORGLEFT
 10
0.0
 20
0.0
 30
0.0
  9
$PUCSORGRIGHT
 10
0.0
 20
0.0
 30
0.0
  9
$PUCSORGFRONT
 10
0.0
 20
0.0
 30
0.0
  9
$PUCSORGBACK
 10
0.0
 20
0.0
 30
0.0
  9
$USERI1
 70
     0
  9
$USERI2
 70
     0
  9
$USERI3
 70
     0
  9
$USERI4
 70
     0
  9
$USERI5
 70
     0
  9
$USERR1
 40
0.0
  9
$USERR2
 40
0.0
  9
$USERR3
 40
0.0
  9
$USERR4
 40
0.0
  9
$USERR5
 40
0.0
  9
$WORLDVIEW
 70
     1
  9
$SHADEDGE
 70
     3
  9
$SHADEDIF
 70
    70
  9
$TILEMODE
 70
     1
  9
$MAXACTVP
 70
    64
  9
$PINSBASE
 10
0.0
 20
0.0
 30
0.0
  9
$PLIMCHECK
 70
     0
  9
$PEXTMIN
 10
-9.375
 20
-25.0
 30
0.0
  9
$PEXTMAX
 10
525.0
 20
371.25
 30
0.0
  9
$PLIMMIN
 10
-7.5
 20
-20.0
  9
$PLIMMAX
 10
420.0
 20
297.0
  9
$UNITMODE
 70
     0
  9
$VISRETAIN
 70
     1
  9
$PLINEGEN
 70
     0
  9
$PSLTSCALE
 70
     0
  9
$TREEDEPTH
 70
  3020
  9
$CMLSTYLE
  2
Standard
  9
$CMLJUST
 70
     0
  9
$CMLSCALE
 40
1.0
  9
$PROXYGRAPHICS
 70
     1
  9
$MEASUREMENT
 70
     1
  9
$CELWEIGHT
370
    -1
  9
$ENDCAPS
280
     0
  9
$JOINSTYLE
280
     0
  9
$LWDISPLAY
290
     1
  9
$INSUNITS
 70
     0
  9
$HYPERLINKBASE
  1

  9
$STYLESHEET
  1

  9
$XEDIT
290
     1
  9
$CEPSNTYPE
380
     0
  9
$PSTYLEMODE
290
     1
  9
$FINGERPRINTGUID
  2
{8cfee047-3b5d-46c8-b855-e075f95a7f40}
  9
$VERSIONGUID
  2
{FAEB1C32-E019-11D5-929B-00C0DF256EC4}
  9
$EXTNAMES
290
     1
  9
$PSVPSCALE
 40
0.0
  9
$OLESTARTUP
290
     0
  0
ENDSEC
  0
SECTION
  2
CLASSES
  0
CLASS
  1
ACDBDICTIONARYWDFLT
  2
AcDbDictionaryWithDefault
  3
ObjectDBX Classes
 90
        0
280
     0
281
     0
  0
CLASS
  1
VISUALSTYLE
  2
AcDbVisualStyle
  3
ObjectDBX Classes
 90
     4095
280
     0
281
     0
  0
CLASS
  1
MATERIAL
  2
AcDbMaterial
  3
ObjectDBX Classes
 90
     1153
280
     0
281
     0
  0
CLASS
  1
SCALE
  2
AcDbScale
  3
ObjectDBX Classes
 90
     1153
280
     0
281
     0
  0
CLASS
  1
TABLESTYLE
  2
AcDbTableStyle
  3
ObjectDBX Classes
 90
     4095
280
     0
281
     0
  0
CLASS
  1
MLEADERSTYLE
  2
AcDbMLeaderStyle
  3
ACDB_MLEADERSTYLE_CLASS
 90
     4095
280
     0
281
     0
  0
CLASS
  1
SUN
  2
AcDbSun
  3
SCENEOE
 90
     1153
280
     0
281
     0
  0
CLASS
  1
RASTERVARIABLES
  2
AcDbRasterVariables
  3
ISM
 90
        0
280
     0
281
     0
  0
CLASS
  1
DICTIONARYVAR
  2
AcDbDictionaryVar
  3
ObjectDBX Classes
 90
        0
280
     0
281
     0
  0
CLASS
  1
ACDBPLACEHOLDER
  2
AcDbPlaceHolder
  3
ObjectDBX Classes
 90
        0
280
     0
281
     0
  0
CLASS
  1
LAYOUT
  2
AcDbLayout
  3
ObjectDBX Classes
 90
        0
280
     0
281
     0
  0
ENDSEC
  0
SECTION
  2
TABLES
  0
TABLE
  2
VPORT
  5
8
102
{ACAD_XDICTIONARY
360
346
102
}
330
0
100
AcDbSymbolTable
 70
     1
  0
VPORT
  5
29
330
8
100
AcDbSymbolTableRecord
100
AcDbViewportTableRecord
  2
*Active
 70
     0
 10
0.0
 20
0.0
 11
1.0
 21
1.0
 12
160.419976330126
 22
115.2304856371384
 13
0.0
 23
0.0
 14
0.5
 24
0.5
 15
0.5
 25
0.5
 16
0.0
 26
0.0
 36
1.0
 17
0.0
 27
0.0
 37
0.0
 40
201.7459801620094
 41
1.451071369287924
 42
50.0
 43
0.0
 44
0.0
 50
0.0
 51
0.0
 71
     0
 72
 20000
 73
     1
 74
     3
 75
     0
 76
     0
 77
     0
 78
     0
281
     0
 65
     1
110
0.0
120
0.0
130
0.0
111
1.0
121
0.0
131
0.0
112
0.0
122
1.0
132
0.0
 79
     0
146
0.0
  0
ENDTAB
  0
TABLE
  2
LTYPE
  5
5
330
0
100
AcDbSymbolTable
 70
     1
  0
LTYPE
  5
14
330
5
100
AcDbSymbolTableRecord
100
AcDbLinetypeTableRecord
  2
ByBlock
 70
     0
  3

 72
    65
 73
     0
 40
0.0
  0
LTYPE
  5
15
330
5
100
AcDbSymbolTableRecord
100
AcDbLinetypeTableRecord
  2
ByLayer
 70
     0
  3

 72
    65
 73
     0
 40
0.0
  0
LTYPE
  5
16
330
5
100
AcDbSymbolTableRecord
100
AcDbLinetypeTableRecord
  2
Continuous
 70
     0
  3
Solid line
 72
    65
 73
     0
 40
0.0
  0
ENDTAB
  0
TABLE
  2
LAYER
  5
2
330
0
100
AcDbSymbolTable
 70
     3
  0
LAYER
  5
10
330
2
100
AcDbSymbolTableRecord
100
AcDbLayerTableRecord
  2
0
 70
     0
 62
     7
  6
Continuous
370
    13
390
F
  0
LAYER
  5
70
330
2
100
AcDbSymbolTableRecord
100
AcDbLayerTableRecord
  2
レイヤー 1
 70
     0
 62
     7
  6
Continuous
370
    13
390
F
  0
LAYER
  5
71
330
2
100
AcDbSymbolTableRecord
100
AcDbLayerTableRecord
  2
rcviewportframe
 70
     0
 62
    -7
  6
Continuous
370
    -3
390
F
  0
ENDTAB
  0
TABLE
  2
STYLE
  5
3
330
0
100
AcDbSymbolTable
 70
     5
  0
STYLE
  5
11
330
3
100
AcDbSymbolTableRecord
100
AcDbTextStyleTableRecord
  2
Standard
 70
     0
 40
0.0
 41
1.0
 50
0.0
 71
     0
 42
0.2
  3
txt.shx
  4
extfont
  0
STYLE
  5
72
330
3
100
AcDbSymbolTableRecord
100
AcDbTextStyleTableRecord
  2
MS PGothic
 70
     0
 40
0.0
 41
1.0
 50
0.0
 71
     0
 42
0.2
  3
MS PGothic.ttf
  4

1001
ACAD
1000
ＭＳ Ｐゴシック
1071
    32818
  0
STYLE
  5
73
330
3
100
AcDbSymbolTableRecord
100
AcDbTextStyleTableRecord
  2
VERTICAL
 70
     4
 40
0.0
 41
1.0
 50
0.0
 71
     0
 42
0.2
  3
txt.shx
  4
extfont
  0
STYLE
  5
74
330
3
100
AcDbSymbolTableRecord
100
AcDbTextStyleTableRecord
  2
VERTICAL MS PGothic
 70
     0
 40
0.0
 41
1.0
 50
0.0
 71
     0
 42
0.2
  3
MS PGothic.ttf
  4

1001
ACAD
1000
@ＭＳ Ｐゴシック
1071
    32818
  0
STYLE
  5
338
330
3
100
AcDbSymbolTableRecord
100
AcDbTextStyleTableRecord
  2
HGPｺﾞｼｯｸM
 70
     0
 40
0.0
 41
1.0
 50
0.0
 71
     0
 42
0.2
  3
HGRGM.TTC
  4
extfont
1001
ACAD
1000
HGPｺﾞｼｯｸM
1071
    32818
  0
ENDTAB
  0
TABLE
  2
VIEW
  5
6
330
0
100
AcDbSymbolTable
 70
     0
  0
ENDTAB
  0
TABLE
  2
UCS
  5
7
330
0
100
AcDbSymbolTable
 70
     0
  0
ENDTAB
  0
TABLE
  2
APPID
  5
9
330
0
100
AcDbSymbolTable
 70
     3
  0
APPID
  5
12
330
9
100
AcDbSymbolTableRecord
100
AcDbRegAppTableRecord
  2
ACAD
 70
     0
  0
APPID
  5
6E
330
9
100
AcDbSymbolTableRecord
100
AcDbRegAppTableRecord
  2
RootPro CAD
 70
     0
  0
APPID
  5
380
330
9
100
AcDbSymbolTableRecord
100
AcDbRegAppTableRecord
  2
ACAD_MLEADERVER
 70
     0
  0
ENDTAB
  0
TABLE
  2
DIMSTYLE
  5
A
330
0
100
AcDbSymbolTable
 70
     1
100
AcDbDimStyleTable
  0
DIMSTYLE
105
27
330
A
100
AcDbSymbolTableRecord
100
AcDbDimStyleTableRecord
  2
Standard
 70
     0
178
     0
340
11
  0
ENDTAB
  0
TABLE
  2
BLOCK_RECORD
  5
1
330
0
100
AcDbSymbolTable
 70
     0
  0
BLOCK_RECORD
  5
1F
330
1
100
AcDbSymbolTableRecord
100
AcDbBlockTableRecord
  2
*Model_Space
340
22
  0
BLOCK_RECORD
  5
1B
330
1
100
AcDbSymbolTableRecord
100
AcDbBlockTableRecord
  2
*Paper_Space
340
1E
  0
ENDTAB
  0
ENDSEC
  0
SECTION
  2
BLOCKS
  0
BLOCK
  5
20
330
1F
100
AcDbEntity
  8
0
100
AcDbBlockBegin
  2
*Model_Space
 70
     0
 10
0.0
 20
0.0
 30
0.0
  3
*Model_Space
  1

  0
ENDBLK
  5
21
330
1F
100
AcDbEntity
  8
0
100
AcDbBlockEnd
  0
BLOCK
  5
1C
330
1B
100
AcDbEntity
 67
     1
  8
0
100
AcDbBlockBegin
  2
*Paper_Space
 70
     0
 10
0.0
 20
0.0
 30
0.0
  3
*Paper_Space
  1

  0
ENDBLK
  5
1D
330
1B
100
AcDbEntity
 67
     1
  8
0
100
AcDbBlockEnd
  0
ENDSEC
  0
SECTION
  2
ENTITIES
  0
LINE
  5
75
330
1F
100
AcDbEntity
  8
レイヤー 1
 62
     7
370
    13
100
AcDbLine
 10
288.266436259102
 20
23.39430460655174
 30
0.0
 11
288.3088109335705
 21
23.39430460655174
 31
0.0
  0
LINE
  5
76
330
1F
100
AcDbEntity
  8
レイヤー 1
 62
     7
370
    13
100
AcDbLine
 10
50.48026145960748
 20
87.14820812793968
 30
0.0
 11
50.39568436544459
 21
87.14820812793968
 31
0.0
  0
LINE
  5
77
330
1F
100
AcDbEntity
  8
レイヤー 1
 62
     7
370
    13
100
AcDbLine
 10
49.76058101273878
 20
87.19058280240824
 30
0.0
 11
37.31465680795097
 21
86.51327703000811
 31
0.0
  0
LINE
  5
78
330
1F
100
AcDbEntity
  8
レイヤー 1
 62
     7
370
    13
100
AcDbLine
 10
35.19799014181348
 20
81.81433904290162
 30
0.0
 11
35.24019256150777
 21
81.77196436843303
 31
0.0
  0
LINE
  5
79
330
1F
100
AcDbEntity
  8
レイヤー 1
 62
     7
370
    13
100
AcDbLine
 10
36.84887989834519
 20
84.14253457183344
 30
0.0
 11
36.89125457281378
 21
84.14253457183344
 31
0.0
  0
LINE
  5
7A
330
1F
100
AcDbEntity
  8
レイヤー 1
 62
     7
370
    13
100
AcDbLine
 10
34.47830969494478
 20
84.10015989736488
 30
0.0
 11
34.39356034600763
 21
84.10015989736488
 31
0.0
  0
LINE
  5
7B
330
1F
100
AcDbEntity
  8
レイヤー 1
 62
     7
370
    13
100
AcDbLine
 10
34.77458790667626
 20
86.38632526137667
 30
0.0
 11
22.28628902741987
 21
85.75122190867086
 31
0.0
  0
LINE
  5
7C
330
1F
100
AcDbEntity
  8
レイヤー 1
 62
     7
370
    13
100
AcDbLine
 10
21.22795569435112
 20
83.16895058770186
 30
0.0
 11
28.93256723756386
 21
78.131187459621
 31
0.0
  0
LINE
  5
7D
330
1F
100
AcDbEntity
  8
レイヤー 1
 62
     7
370
    13
100
AcDbLine
 10
21.43965681191972
 20
85.49731837140794
 30
0.0
 11
21.14320634541397
 21
83.38065170527045
 31
0.0
  0
LINE
  5
7E
330
1F
100
AcDbEntity
  8
レイヤー 1
 62
     7
370
    13
100
AcDbLine
 10
299.7813234090009
 20
32.11487480836468
 30
0.0
 11
50.52263613407607
 21
87.35990924550828
 31
0.0
  0
LINE
  5
7F
330
1F
100
AcDbEntity
  8
レイヤー 1
 62
     7
370
    13
100
AcDbLine
 10
28.97494191203242
 20
77.96186101652097
 30
0.0
 11
30.07564991956974
 21
77.70795747925806
 31
0.0
  0
LINE
  5
80
330
1F
100
AcDbEntity
  8
レイヤー 1
 62
     7
370
    13
100
AcDbLine
 10
76.72689366875764
 20
71.61186101810847
 30
0.0
 11
77.86997635076352
 21
71.86593681014566
 31
0.0
  0
POINT
  5
81
330
1F
100
AcDbEntity
  8
レイヤー 1
 62
     7
370
    13
100
AcDbPoint
 10
77.86997635076352
 20
71.86593681014566
 30
0.0
  0
LINE
  5
82
330
1F
100
AcDbEntity
  8
レイヤー 1
 62
     7
370
    13
100
AcDbLine
 10
77.86997635076352
 20
71.86593681014566
 30
0.0
 11
77.86997635076352
 21
71.90831148461422
 31
0.0
  0
LINE
  5
83
330
1F
100
AcDbEntity
  8
レイヤー 1
 62
     7
370
    13
100
AcDbLine
 10
77.86997635076352
 20
71.90831148461422
 30
0.0
 11
77.91235102523211
 21
71.90831148461422
 31
0.0
  0
POINT
  5
84
330
1F
100
AcDbEntity
  8
レイヤー 1
 62
     7
370
    13
100
AcDbPoint
 10
77.91235102523211
 20
71.9506861590828
 30
0.0
  0
LINE
  5
85
330
1F
100
AcDbEntity
  8
レイヤー 1
 62
     7
370
    13
100
AcDbLine
 10
77.91235102523211
 20
71.90831148461422
 30
0.0
 11
77.91235102523211
 21
71.9506861590828
 31
0.0
  0
POINT
  5
86
330
1F
100
AcDbEntity
  8
レイヤー 1
 62
     7
370
    13
100
AcDbPoint
 10
76.68451899428905
 20
71.65423569257706
 30
0.0
  0
LINE
  5
87
330
1F
100
AcDbEntity
  8
レイヤー 1
 62
     7
370
    13
100
AcDbLine
 10
76.68451899428905
 20
71.65423569257706
 30
0.0
 11
76.68451899428905
 21
71.61186101810847
 31
0.0
  0
LINE
  5
88
330
1F
100
AcDbEntity
  8
レイヤー 1
 62
     7
370
    13
100
AcDbLine
 10
76.68451899428905
 20
71.61186101810847
 30
0.0
 11
76.72689366875764
 21
71.61186101810847
 31
0.0
  0
POINT
  5
89
330
1F
100
AcDbEntity
  8
レイヤー 1
 62
     7
370
    13
100
AcDbPoint
 10
76.68451899428905
 20
71.69661036704562
 30
0.0
  0
LINE
  5
8A
330
1F
100
AcDbEntity
  8
レイヤー 1
 62
     7
370
    13
100
AcDbLine
 10
76.68451899428905
 20
71.69661036704562
 30
0.0
 11
76.68451899428905
 21
71.65423569257706
 31
0.0
  0
LINE
  5
8B
330
1F
100
AcDbEntity
  8
レイヤー 1
 62
     7
370
    13
100
AcDbLine
 10
76.68451899428905
 20
71.65423569257706
 30
0.0
 11
76.68451899428905
 21
71.61186101810847
 31
0.0
  0
LINE
  5
8C
330
1F
100
AcDbEntity
  8
レイヤー 1
 62
     7
370
    13
100
AcDbLine
 10
256.3472820787136
 20
31.81859659663317
 30
0.0
 11
257.4903647607196
 21
32.11487480836468
 31
0.0
  0
POINT
  5
8D
330
1F
100
AcDbEntity
  8
レイヤー 1
 62
     7
370
    13
100
AcDbPoint
 10
257.4903647607196
 20
32.11487480836468
 30
0.0
  0
LINE
  5
8E
330
1F
100
AcDbEntity
  8
レイヤー 1
 62
     7
370
    13
100
AcDbLine
 10
257.4903647607196
 20
32.11487480836468
 30
0.0
 11
257.5327394351881
 21
32.11487480836468
 31
0.0
  0
LINE
  5
8F
330
1F
100
AcDbEntity
  8
レイヤー 1
 62
     7
370
    13
100
AcDbLine
 10
257.5327394351881
 20
32.11487480836468
 30
0.0
 11
257.5327394351881
 21
32.15724948283324
 31
0.0
  0
POINT
  5
90
330
1F
100
AcDbEntity
  8
レイヤー 1
 62
     7
370
    13
100
AcDbPoint
 10
257.5327394351881
 20
32.15724948283324
 30
0.0
  0
LINE
  5
91
330
1F
100
AcDbEntity
  8
レイヤー 1
 62
     7
370
    13
100
AcDbLine
 10
257.5327394351881
 20
32.15724948283324
 30
0.0
 11
257.5327394351881
 21
32.11487480836468
 31
0.0
  0
POINT
  5
92
330
1F
100
AcDbEntity
  8
レイヤー 1
 62
     7
370
    13
100
AcDbPoint
 10
256.3049074042451
 20
31.86097127110176
 30
0.0
  0
LINE
  5
93
330
1F
100
AcDbEntity
  8
レイヤー 1
 62
     7
370
    13
100
AcDbLine
 10
256.3049074042451
 20
31.86097127110176
 30
0.0
 11
256.3049074042451
 21
31.81859659663317
 31
0.0
  0
LINE
  5
94
330
1F
100
AcDbEntity
  8
レイヤー 1
 62
     7
370
    13
100
AcDbLine
 10
256.3049074042451
 20
31.81859659663317
 30
0.0
 11
256.3472820787136
 21
31.81859659663317
 31
0.0
  0
POINT
  5
95
330
1F
100
AcDbEntity
  8
レイヤー 1
 62
     7
370
    13
100
AcDbPoint
 10
256.3049074042451
 20
31.90317369079605
 30
0.0
  0
LINE
  5
96
330
1F
100
AcDbEntity
  8
レイヤー 1
 62
     7
370
    13
100
AcDbLine
 10
256.3049074042451
 20
31.90317369079605
 30
0.0
 11
256.3049074042451
 21
31.86097127110176
 31
0.0
  0
LINE
  5
97
330
1F
100
AcDbEntity
  8
レイヤー 1
 62
     7
370
    13
100
AcDbLine
 10
32.99657412673884
 20
74.36363103695177
 30
0.0
 11
34.52068436941335
 21
74.02497815075174
 31
0.0
  0
LINE
  5
98
330
1F
100
AcDbEntity
  8
レイヤー 1
 62
     7
370
    13
100
AcDbLine
 10
41.29391434818879
 20
78.131187459621
 30
0.0
 11
39.76997636028852
 21
78.42763792612675
 31
0.0
  0
LINE
  5
99
330
1F
100
AcDbEntity
  8
レイヤー 1
 62
     7
370
    13
100
AcDbLine
 10
39.72760168581996
 20
78.42763792612675
 30
0.0
 11
30.32955345683266
 21
77.91965859682668
 31
0.0
  0
LINE
  5
9A
330
1F
100
AcDbEntity
  8
レイヤー 1
 62
     7
370
    13
100
AcDbLine
 10
34.69001081251338
 20
82.19519434879598
 30
0.0
 11
34.69001081251338
 21
82.15299192910166
 31
0.0
  0
POINT
  5
9B
330
1F
100
AcDbEntity
  8
レイヤー 1
 62
     7
370
    13
100
AcDbPoint
 10
30.32955345683266
 20
77.91965859682668
 30
0.0
  0
LINE
  5
9C
330
1F
100
AcDbEntity
  8
レイヤー 1
 62
     7
370
    13
100
AcDbLine
 10
30.32955345683266
 20
77.91965859682668
 30
0.0
 11
30.28735103713836
 21
77.91965859682668
 31
0.0
  0
LINE
  5
9D
330
1F
100
AcDbEntity
  8
レイヤー 1
 62
     7
370
    13
100
AcDbLine
 10
30.28735103713836
 20
77.91965859682668
 30
0.0
 11
30.24497636266977
 21
77.91965859682668
 31
0.0
  0
LINE
  5
9E
330
1F
100
AcDbEntity
  8
レイヤー 1
 62
     7
370
    13
100
AcDbLine
 10
30.24497636266977
 20
77.91965859682668
 30
0.0
 11
30.24497636266977
 21
77.87728392235809
 31
0.0
  0
LINE
  5
9F
330
1F
100
AcDbEntity
  8
レイヤー 1
 62
     7
370
    13
100
AcDbLine
 10
30.24497636266977
 20
77.87728392235809
 30
0.0
 11
30.20260168820121
 21
77.87728392235809
 31
0.0
  0
LINE
  5
A0
330
1F
100
AcDbEntity
  8
レイヤー 1
 62
     7
370
    13
100
AcDbLine
 10
30.20260168820121
 20
77.87728392235809
 30
0.0
 11
30.16022701373262
 21
77.83490924788953
 31
0.0
  0
LINE
  5
A1
330
1F
100
AcDbEntity
  8
レイヤー 1
 62
     7
370
    13
100
AcDbLine
 10
30.16022701373262
 20
77.83490924788953
 30
0.0
 11
30.11785233926406
 21
77.79253457342094
 31
0.0
  0
LINE
  5
A2
330
1F
100
AcDbEntity
  8
レイヤー 1
 62
     7
370
    13
100
AcDbLine
 10
30.11785233926406
 20
77.79253457342094
 30
0.0
 11
30.11785233926406
 21
77.75015989895238
 31
0.0
  0
LINE
  5
A3
330
1F
100
AcDbEntity
  8
レイヤー 1
 62
     7
370
    13
100
AcDbLine
 10
30.11785233926406
 20
77.75015989895238
 30
0.0
 11
30.07564991956974
 21
77.75015989895238
 31
0.0
  0
LINE
  5
A4
330
1F
100
AcDbEntity
  8
レイヤー 1
 62
     7
370
    13
100
AcDbLine
 10
30.07564991956974
 20
77.75015989895238
 30
0.0
 11
30.07564991956974
 21
77.70795747925806
 31
0.0
  0
LINE
  5
A5
330
1F
100
AcDbEntity
  8
レイヤー 1
 62
     7
370
    13
100
AcDbLine
 10
30.07564991956974
 20
77.70795747925806
 30
0.0
 11
30.03327524510118
 21
77.6655828047895
 31
0.0
  0
LINE
  5
A6
330
1F
100
AcDbEntity
  8
レイヤー 1
 62
     7
370
    13
100
AcDbLine
 10
30.03327524510118
 20
77.6655828047895
 30
0.0
 11
30.03327524510118
 21
77.62320813032093
 31
0.0
  0
LINE
  5
A7
330
1F
100
AcDbEntity
  8
レイヤー 1
 62
     7
370
    13
100
AcDbLine
 10
30.03327524510118
 20
77.62320813032093
 30
0.0
 11
30.03327524510118
 21
77.58100571062661
 31
0.0
  0
LINE
  5
A8
330
1F
100
AcDbEntity
  8
レイヤー 1
 62
     7
370
    13
100
AcDbLine
 10
30.03327524510118
 20
77.58100571062661
 30
0.0
 11
30.03327524510118
 21
77.53863103615802
 31
0.0
  0
LINE
  5
A9
330
1F
100
AcDbEntity
  8
レイヤー 1
 62
     7
370
    13
100
AcDbLine
 10
30.03327524510118
 20
77.53863103615802
 30
0.0
 11
30.03327524510118
 21
77.49625636168946
 31
0.0
  0
LINE
  5
AA
330
1F
100
AcDbEntity
  8
レイヤー 1
 62
     7
370
    13
100
AcDbLine
 10
30.03327524510118
 20
77.49625636168946
 30
0.0
 11
29.99090057063259
 21
77.49625636168946
 31
0.0
  0
POINT
  5
AB
330
1F
100
AcDbEntity
  8
レイヤー 1
 62
     7
370
    13
100
AcDbPoint
 10
29.90632347646971
 20
76.69182656588362
 30
0.0
  0
LINE
  5
AC
330
1F
100
AcDbEntity
  8
レイヤー 1
 62
     7
370
    13
100
AcDbLine
 10
29.90632347646971
 20
76.69182656588362
 30
0.0
 11
29.90632347646971
 21
76.64962414618932
 31
0.0
  0
LINE
  5
AD
330
1F
100
AcDbEntity
  8
レイヤー 1
 62
     7
370
    13
100
AcDbLine
 10
29.90632347646971
 20
76.64962414618932
 30
0.0
 11
29.90632347646971
 21
76.60724947172073
 31
0.0
  0
LINE
  5
AE
330
1F
100
AcDbEntity
  8
レイヤー 1
 62
     7
370
    13
100
AcDbLine
 10
29.90632347646971
 20
76.60724947172073
 30
0.0
 11
29.90632347646971
 21
76.56487479725217
 31
0.0
  0
LINE
  5
AF
330
1F
100
AcDbEntity
  8
レイヤー 1
 62
     7
370
    13
100
AcDbLine
 10
29.90632347646971
 20
76.56487479725217
 30
0.0
 11
29.90632347646971
 21
76.52267237755785
 31
0.0
  0
LINE
  5
B0
330
1F
100
AcDbEntity
  8
レイヤー 1
 62
     7
370
    13
100
AcDbLine
 10
29.90632347646971
 20
76.52267237755785
 30
0.0
 11
29.90632347646971
 21
76.48029770308929
 31
0.0
  0
LINE
  5
B1
330
1F
100
AcDbEntity
  8
レイヤー 1
 62
     7
370
    13
100
AcDbLine
 10
29.90632347646971
 20
76.48029770308929
 30
0.0
 11
29.90632347646971
 21
76.4379230286207
 31
0.0
  0
LINE
  5
B2
330
1F
100
AcDbEntity
  8
レイヤー 1
 62
     7
370
    13
100
AcDbLine
 10
29.90632347646971
 20
76.4379230286207
 30
0.0
 11
29.90632347646971
 21
76.39554835415214
 31
0.0
  0
LINE
  5
B3
330
1F
100
AcDbEntity
  8
レイヤー 1
 62
     7
370
    13
100
AcDbLine
 10
29.90632347646971
 20
76.39554835415214
 30
0.0
 11
29.94852589616403
 21
76.39554835415214
 31
0.0
  0
LINE
  5
B4
330
1F
100
AcDbEntity
  8
レイヤー 1
 62
     7
370
    13
100
AcDbLine
 10
29.94852589616403
 20
76.39554835415214
 30
0.0
 11
29.94852589616403
 21
76.35317367968358
 31
0.0
  0
LINE
  5
B5
330
1F
100
AcDbEntity
  8
レイヤー 1
 62
     7
370
    13
100
AcDbLine
 10
29.99090057063259
 20
77.49625636168946
 30
0.0
 11
29.90632347646971
 21
76.69182656588362
 31
0.0
  0
LINE
  5
B6
330
1F
100
AcDbEntity
  8
レイヤー 1
 62
     7
370
    13
100
AcDbLine
 10
280.3926705275634
 20
19.54199883494539
 30
0.0
 11
281.958810935158
 21
19.24554836843964
 31
0.0
  0
LINE
  5
B7
330
1F
100
AcDbEntity
  8
レイヤー 1
 62
     7
370
    13
100
AcDbLine
 10
288.5206843059134
 20
23.30955525761462
 30
0.0
 11
286.9965740632389
 21
23.69058281828325
 31
0.0
  0
LINE
  5
B8
330
1F
100
AcDbEntity
  8
レイヤー 1
 62
     7
370
    13
100
AcDbLine
 10
288.3935602825077
 20
21.74324259524576
 30
0.0
 11
288.3935602825077
 21
21.78561726971435
 31
0.0
  0
LINE
  5
B9
330
1F
100
AcDbEntity
  8
レイヤー 1
 62
     7
370
    13
100
AcDbLine
 10
288.3935602825077
 20
21.78561726971435
 30
0.0
 11
288.4359349569762
 21
21.78561726971435
 31
0.0
  0
LINE
  5
BA
330
1F
100
AcDbEntity
  8
レイヤー 1
 62
     7
370
    13
100
AcDbLine
 10
288.4359349569762
 20
21.78561726971435
 30
0.0
 11
288.4359349569762
 21
21.82799194418291
 31
0.0
  0
LINE
  5
BB
330
1F
100
AcDbEntity
  8
レイヤー 1
 62
     7
370
    13
100
AcDbLine
 10
288.4359349569762
 20
21.82799194418291
 30
0.0
 11
288.4783096314447
 21
21.82799194418291
 31
0.0
  0
LINE
  5
BC
330
1F
100
AcDbEntity
  8
レイヤー 1
 62
     7
370
    13
100
AcDbLine
 10
288.4783096314447
 20
21.82799194418291
 30
0.0
 11
288.4783096314447
 21
21.87019436387723
 31
0.0
  0
LINE
  5
BD
330
1F
100
AcDbEntity
  8
レイヤー 1
 62
     7
370
    13
100
AcDbLine
 10
288.4783096314447
 20
21.87019436387723
 30
0.0
 11
288.5206843059134
 21
21.91256903834579
 31
0.0
  0
LINE
  5
BE
330
1F
100
AcDbEntity
  8
レイヤー 1
 62
     7
370
    13
100
AcDbLine
 10
288.5206843059134
 20
21.91256903834579
 30
0.0
 11
288.5206843059134
 21
21.95494371281438
 31
0.0
  0
LINE
  5
BF
330
1F
100
AcDbEntity
  8
レイヤー 1
 62
     7
370
    13
100
AcDbLine
 10
288.5206843059134
 20
21.95494371281438
 30
0.0
 11
288.5206843059134
 21
21.99731838728295
 31
0.0
  0
LINE
  5
C0
330
1F
100
AcDbEntity
  8
レイヤー 1
 62
     7
370
    13
100
AcDbLine
 10
288.5206843059134
 20
21.99731838728295
 30
0.0
 11
288.5630589803819
 21
22.03952080697727
 31
0.0
  0
LINE
  5
C1
330
1F
100
AcDbEntity
  8
レイヤー 1
 62
     7
370
    13
100
AcDbLine
 10
288.5630589803819
 20
22.03952080697727
 30
0.0
 11
288.5630589803819
 21
22.08189548144583
 31
0.0
  0
LINE
  5
C2
330
1F
100
AcDbEntity
  8
レイヤー 1
 62
     7
370
    13
100
AcDbLine
 10
288.5630589803819
 20
22.08189548144583
 30
0.0
 11
288.5630589803819
 21
22.12427015591439
 31
0.0
  0
LINE
  5
C3
330
1F
100
AcDbEntity
  8
レイヤー 1
 62
     7
370
    13
100
AcDbLine
 10
288.5630589803819
 20
22.12427015591439
 30
0.0
 11
288.6898384942391
 21
22.88632527725167
 31
0.0
  0
LINE
  5
C4
330
1F
100
AcDbEntity
  8
レイヤー 1
 62
     7
370
    13
100
AcDbLine
 10
288.6898384942391
 20
22.88632527725167
 30
0.0
 11
288.6898384942391
 21
22.92852769694596
 31
0.0
  0
LINE
  5
C5
330
1F
100
AcDbEntity
  8
レイヤー 1
 62
     7
370
    13
100
AcDbLine
 10
288.6898384942391
 20
22.92852769694596
 30
0.0
 11
288.6898384942391
 21
22.97090237141455
 31
0.0
  0
LINE
  5
C6
330
1F
100
AcDbEntity
  8
レイヤー 1
 62
     7
370
    13
100
AcDbLine
 10
288.6898384942391
 20
22.97090237141455
 30
0.0
 11
288.6898384942391
 21
23.01327704588311
 31
0.0
  0
LINE
  5
C7
330
1F
100
AcDbEntity
  8
レイヤー 1
 62
     7
370
    13
100
AcDbLine
 10
288.6898384942391
 20
23.01327704588311
 30
0.0
 11
288.6898384942391
 21
23.0556517203517
 31
0.0
  0
LINE
  5
C8
330
1F
100
AcDbEntity
  8
レイヤー 1
 62
     7
370
    13
100
AcDbLine
 10
288.6898384942391
 20
23.0556517203517
 30
0.0
 11
288.6898384942391
 21
23.097854140046
 31
0.0
  0
LINE
  5
C9
330
1F
100
AcDbEntity
  8
レイヤー 1
 62
     7
370
    13
100
AcDbLine
 10
288.6898384942391
 20
23.097854140046
 30
0.0
 11
288.6898384942391
 21
23.14022881451459
 31
0.0
  0
LINE
  5
CA
330
1F
100
AcDbEntity
  8
レイヤー 1
 62
     7
370
    13
100
AcDbLine
 10
288.6898384942391
 20
23.14022881451459
 30
0.0
 11
288.6474638197706
 21
23.18260348898315
 31
0.0
  0
LINE
  5
CB
330
1F
100
AcDbEntity
  8
レイヤー 1
 62
     7
370
    13
100
AcDbLine
 10
288.6474638197706
 20
23.18260348898315
 30
0.0
 11
288.6474638197706
 21
23.22497816345174
 31
0.0
  0
LINE
  5
CC
330
1F
100
AcDbEntity
  8
レイヤー 1
 62
     7
370
    13
100
AcDbLine
 10
288.6474638197706
 20
23.22497816345174
 30
0.0
 11
288.6054336548505
 21
23.26718058314603
 31
0.0
  0
LINE
  5
CD
330
1F
100
AcDbEntity
  8
レイヤー 1
 62
     7
370
    13
100
AcDbLine
 10
288.6054336548505
 20
23.26718058314603
 30
0.0
 11
288.5630589803819
 21
23.30955525761462
 31
0.0
  0
LINE
  5
CE
330
1F
100
AcDbEntity
  8
レイヤー 1
 62
     7
370
    13
100
AcDbLine
 10
288.5630589803819
 20
23.30955525761462
 30
0.0
 11
288.5206843059134
 21
23.30955525761462
 31
0.0
  0
LINE
  5
CF
330
1F
100
AcDbEntity
  8
レイヤー 1
 62
     7
370
    13
100
AcDbLine
 10
288.5206843059134
 20
23.30955525761462
 30
0.0
 11
288.4783096314447
 21
23.30955525761462
 31
0.0
  0
LINE
  5
D0
330
1F
100
AcDbEntity
  8
レイヤー 1
 62
     7
370
    13
100
AcDbLine
 10
34.69001081251338
 20
73.98260347628315
 30
0.0
 11
280.3079211786263
 21
19.58420125463971
 31
0.0
  0
LINE
  5
D1
330
1F
100
AcDbEntity
  8
レイヤー 1
 62
     7
370
    13
100
AcDbLine
 10
286.9965740632389
 20
23.69058281828325
 30
0.0
 11
41.29391434818879
 21
78.08898503992668
 31
0.0
  0
LINE
  5
D2
330
1F
100
AcDbEntity
  8
レイヤー 1
 62
     7
370
    13
100
AcDbLine
 10
49.6760039185759
 20
87.10600570824536
 30
0.0
 11
50.39568436544459
 21
87.14820812793968
 31
0.0
  0
LINE
  5
D3
330
1F
100
AcDbEntity
  8
レイヤー 1
 62
     7
370
    13
100
AcDbLine
 10
50.43788678513891
 20
87.02125635930821
 30
0.0
 11
50.43788678513891
 21
87.06363103377677
 31
0.0
  0
LINE
  5
D4
330
1F
100
AcDbEntity
  8
レイヤー 1
 62
     7
370
    13
100
AcDbLine
 10
50.43788678513891
 20
87.06363103377677
 30
0.0
 11
50.43788678513891
 21
87.10600570824536
 31
0.0
  0
LINE
  5
D5
330
1F
100
AcDbEntity
  8
レイヤー 1
 62
     7
370
    13
100
AcDbLine
 10
50.43788678513891
 20
87.10600570824536
 30
0.0
 11
50.39568436544459
 21
87.14820812793968
 31
0.0
  0
LINE
  5
D6
330
1F
100
AcDbEntity
  8
レイヤー 1
 62
     7
370
    13
100
AcDbLine
 10
50.43788678513891
 20
87.02125635930821
 30
0.0
 11
50.14160857340744
 21
84.90458969317072
 31
0.0
  0
LINE
  5
D7
330
1F
100
AcDbEntity
  8
レイヤー 1
 62
     7
370
    13
100
AcDbLine
 10
50.05685922447029
 20
84.86221501870213
 30
0.0
 11
50.09923389893885
 21
84.86221501870213
 31
0.0
  0
LINE
  5
D8
330
1F
100
AcDbEntity
  8
レイヤー 1
 62
     7
370
    13
100
AcDbLine
 10
50.09923389893885
 20
84.86221501870213
 30
0.0
 11
50.09923389893885
 21
84.90458969317072
 31
0.0
  0
LINE
  5
D9
330
1F
100
AcDbEntity
  8
レイヤー 1
 62
     7
370
    13
100
AcDbLine
 10
50.09923389893885
 20
84.90458969317072
 30
0.0
 11
50.14160857340744
 21
84.90458969317072
 31
0.0
  0
LINE
  5
DA
330
1F
100
AcDbEntity
  8
レイヤー 1
 62
     7
370
    13
100
AcDbLine
 10
50.05685922447029
 20
84.86221501870213
 30
0.0
 11
50.01465680477597
 21
84.81984034423357
 31
0.0
  0
LINE
  5
DB
330
1F
100
AcDbEntity
  8
レイヤー 1
 62
     7
370
    13
100
AcDbLine
 10
50.01465680477597
 20
84.81984034423357
 30
0.0
 11
40.74356034442013
 21
78.8508679064897
 31
0.0
  0
LINE
  5
DC
330
1F
100
AcDbEntity
  8
レイヤー 1
 62
     7
370
    13
100
AcDbLine
 10
40.74356034442013
 20
78.8508679064897
 30
0.0
 11
40.61660857578869
 21
78.76629081232682
 31
0.0
  0
LINE
  5
DD
330
1F
100
AcDbEntity
  8
レイヤー 1
 62
     7
370
    13
100
AcDbLine
 10
40.61660857578869
 20
78.76629081232682
 30
0.0
 11
40.61660857578869
 21
78.72391613785825
 31
0.0
  0
POINT
  5
DE
330
1F
100
AcDbEntity
  8
レイヤー 1
 62
     7
370
    13
100
AcDbPoint
 10
40.61660857578869
 20
78.76629081232682
 30
0.0
  0
LINE
  5
DF
330
1F
100
AcDbEntity
  8
レイヤー 1
 62
     7
370
    13
100
AcDbLine
 10
40.61660857578869
 20
78.76629081232682
 30
0.0
 11
40.40490745822007
 21
78.76629081232682
 31
0.0
  0
LINE
  5
E0
330
1F
100
AcDbEntity
  8
レイヤー 1
 62
     7
370
    13
100
AcDbLine
 10
40.40490745822007
 20
78.76629081232682
 30
0.0
 11
29.22901770406961
 21
78.1735621340896
 31
0.0
  0
LINE
  5
E1
330
1F
100
AcDbEntity
  8
レイヤー 1
 62
     7
370
    13
100
AcDbLine
 10
29.22901770406961
 20
78.1735621340896
 30
0.0
 11
29.01731658650101
 21
78.131187459621
 31
0.0
  0
POINT
  5
E2
330
1F
100
AcDbEntity
  8
レイヤー 1
 62
     7
370
    13
100
AcDbPoint
 10
29.01731658650101
 20
78.131187459621
 30
0.0
  0
LINE
  5
E3
330
1F
100
AcDbEntity
  8
レイヤー 1
 62
     7
370
    13
100
AcDbLine
 10
29.01731658650101
 20
78.131187459621
 30
0.0
 11
29.01731658650101
 21
78.1735621340896
 31
0.0
  0
LINE
  5
E4
330
1F
100
AcDbEntity
  8
レイヤー 1
 62
     7
370
    13
100
AcDbLine
 10
29.01731658650101
 20
78.1735621340896
 30
0.0
 11
28.89019256309527
 21
78.25831148302672
 31
0.0
  0
LINE
  5
E5
330
1F
100
AcDbEntity
  8
レイヤー 1
 62
     7
370
    13
100
AcDbLine
 10
21.22795569435112
 20
83.2959023563333
 30
0.0
 11
28.89019256309527
 21
78.25831148302672
 31
0.0
  0
LINE
  5
E6
330
1F
100
AcDbEntity
  8
レイヤー 1
 62
     7
370
    13
100
AcDbLine
 10
21.22795569435112
 20
83.2959023563333
 30
0.0
 11
21.18558101988255
 21
83.2959023563333
 31
0.0
  0
LINE
  5
E7
330
1F
100
AcDbEntity
  8
レイヤー 1
 62
     7
370
    13
100
AcDbLine
 10
21.14320634541397
 20
83.38065170527045
 30
0.0
 11
21.14320634541397
 21
83.33827703080186
 31
0.0
  0
LINE
  5
E8
330
1F
100
AcDbEntity
  8
レイヤー 1
 62
     7
370
    13
100
AcDbLine
 10
21.14320634541397
 20
83.33827703080186
 30
0.0
 11
21.18558101988255
 21
83.2959023563333
 31
0.0
  0
LINE
  5
E9
330
1F
100
AcDbEntity
  8
レイヤー 1
 62
     7
370
    13
100
AcDbLine
 10
21.14320634541397
 20
83.38065170527045
 30
0.0
 11
21.43965681191972
 21
85.49731837140794
 31
0.0
  0
LINE
  5
EA
330
1F
100
AcDbEntity
  8
レイヤー 1
 62
     7
370
    13
100
AcDbLine
 10
21.5242339060826
 20
85.62427014003941
 30
0.0
 11
21.48185923161402
 21
85.58189546557082
 31
0.0
  0
LINE
  5
EB
330
1F
100
AcDbEntity
  8
レイヤー 1
 62
     7
370
    13
100
AcDbLine
 10
21.48185923161402
 20
85.58189546557082
 30
0.0
 11
21.43965681191972
 21
85.53952079110226
 31
0.0
  0
LINE
  5
EC
330
1F
100
AcDbEntity
  8
レイヤー 1
 62
     7
370
    13
100
AcDbLine
 10
21.43965681191972
 20
85.53952079110226
 30
0.0
 11
21.43965681191972
 21
85.49731837140794
 31
0.0
  0
LINE
  5
ED
330
1F
100
AcDbEntity
  8
レイヤー 1
 62
     7
370
    13
100
AcDbLine
 10
21.5242339060826
 20
85.62427014003941
 30
0.0
 11
22.24391435295129
 21
85.66664481450798
 31
0.0
  0
LINE
  5
EE
330
1F
100
AcDbEntity
  8
レイヤー 1
 62
     7
370
    13
100
AcDbLine
 10
22.24391435295129
 20
85.66664481450798
 30
0.0
 11
34.69001081251338
 21
86.30157591243952
 31
0.0
  0
LINE
  5
EF
330
1F
100
AcDbEntity
  8
レイヤー 1
 62
     7
370
    13
100
AcDbLine
 10
34.69001081251338
 20
86.30157591243952
 30
0.0
 11
34.35118567153907
 21
84.10015989736488
 31
0.0
  0
LINE
  5
F0
330
1F
100
AcDbEntity
  8
レイヤー 1
 62
     7
370
    13
100
AcDbLine
 10
34.35118567153907
 20
84.10015989736488
 30
0.0
 11
34.39356034600763
 21
84.10015989736488
 31
0.0
  0
LINE
  5
F1
330
1F
100
AcDbEntity
  8
レイヤー 1
 62
     7
370
    13
100
AcDbLine
 10
34.39356034600763
 20
84.10015989736488
 30
0.0
 11
34.43593502047619
 21
84.10015989736488
 31
0.0
  0
LINE
  5
F2
330
1F
100
AcDbEntity
  8
レイヤー 1
 62
     7
370
    13
100
AcDbLine
 10
34.43593502047619
 20
84.10015989736488
 30
0.0
 11
34.43593502047619
 21
84.05795747767056
 31
0.0
  0
LINE
  5
F3
330
1F
100
AcDbEntity
  8
レイヤー 1
 62
     7
370
    13
100
AcDbLine
 10
34.43593502047619
 20
84.05795747767056
 30
0.0
 11
34.43593502047619
 21
84.015582803202
 31
0.0
  0
POINT
  5
F4
330
1F
100
AcDbEntity
  8
レイヤー 1
 62
     7
370
    13
100
AcDbPoint
 10
34.39356034600763
 20
84.015582803202
 30
0.0
  0
LINE
  5
F5
330
1F
100
AcDbEntity
  8
レイヤー 1
 62
     7
370
    13
100
AcDbLine
 10
34.39356034600763
 20
84.015582803202
 30
0.0
 11
34.43593502047619
 21
84.05795747767056
 31
0.0
  0
LINE
  5
F6
330
1F
100
AcDbEntity
  8
レイヤー 1
 62
     7
370
    13
100
AcDbLine
 10
34.39356034600763
 20
84.015582803202
 30
0.0
 11
34.35118567153907
 21
84.015582803202
 31
0.0
  0
LINE
  5
F7
330
1F
100
AcDbEntity
  8
レイヤー 1
 62
     7
370
    13
100
AcDbLine
 10
34.35118567153907
 20
84.015582803202
 30
0.0
 11
34.30898325184475
 21
83.54997814837049
 31
0.0
  0
LINE
  5
F8
330
1F
100
AcDbEntity
  8
レイヤー 1
 62
     7
370
    13
100
AcDbLine
 10
34.30898325184475
 20
83.54997814837049
 30
0.0
 11
34.30898325184475
 21
83.12657591323327
 31
0.0
  0
LINE
  5
F9
330
1F
100
AcDbEntity
  8
レイヤー 1
 62
     7
370
    13
100
AcDbLine
 10
34.30898325184475
 20
83.12657591323327
 30
0.0
 11
34.39356034600763
 21
82.74554835256464
 31
0.0
  0
LINE
  5
FA
330
1F
100
AcDbEntity
  8
レイヤー 1
 62
     7
370
    13
100
AcDbLine
 10
34.39356034600763
 20
82.74554835256464
 30
0.0
 11
34.47830969494478
 21
82.40689546636457
 31
0.0
  0
LINE
  5
FB
330
1F
100
AcDbEntity
  8
レイヤー 1
 62
     7
370
    13
100
AcDbLine
 10
34.47830969494478
 20
82.40689546636457
 30
0.0
 11
34.64763613804482
 21
82.1106172546331
 31
0.0
  0
LINE
  5
FC
330
1F
100
AcDbEntity
  8
レイヤー 1
 62
     7
370
    13
100
AcDbLine
 10
34.64763613804482
 20
82.1106172546331
 30
0.0
 11
34.81696258114485
 21
81.94129081153307
 31
0.0
  0
LINE
  5
FD
330
1F
100
AcDbEntity
  8
レイヤー 1
 62
     7
370
    13
100
AcDbLine
 10
34.81696258114485
 20
81.94129081153307
 30
0.0
 11
35.07086611840776
 21
81.81433904290162
 31
0.0
  0
LINE
  5
FE
330
1F
100
AcDbEntity
  8
レイヤー 1
 62
     7
370
    13
100
AcDbLine
 10
35.07086611840776
 20
81.81433904290162
 30
0.0
 11
35.28256723597636
 21
81.77196436843303
 31
0.0
  0
LINE
  5
FF
330
1F
100
AcDbEntity
  8
レイヤー 1
 62
     7
370
    13
100
AcDbLine
 10
35.28256723597636
 20
81.77196436843303
 30
0.0
 11
35.53664302801354
 21
81.85654146259591
 31
0.0
  0
LINE
  5
100
330
1F
100
AcDbEntity
  8
レイヤー 1
 62
     7
370
    13
100
AcDbLine
 10
35.53664302801354
 20
81.85654146259591
 30
0.0
 11
35.79054656527643
 21
81.98349323122738
 31
0.0
  0
LINE
  5
101
330
1F
100
AcDbEntity
  8
レイヤー 1
 62
     7
370
    13
100
AcDbLine
 10
35.79054656527643
 20
81.98349323122738
 30
0.0
 11
36.04462235731361
 21
82.19519434879598
 31
0.0
  0
LINE
  5
102
330
1F
100
AcDbEntity
  8
レイヤー 1
 62
     7
370
    13
100
AcDbLine
 10
36.04462235731361
 20
82.19519434879598
 30
0.0
 11
36.25632347488221
 21
82.49164481530173
 31
0.0
  0
LINE
  5
103
330
1F
100
AcDbEntity
  8
レイヤー 1
 62
     7
370
    13
100
AcDbLine
 10
36.25632347488221
 20
82.49164481530173
 30
0.0
 11
36.46785233767656
 21
82.87267237597035
 31
0.0
  0
LINE
  5
104
330
1F
100
AcDbEntity
  8
レイヤー 1
 62
     7
370
    13
100
AcDbLine
 10
36.46785233767656
 20
82.87267237597035
 30
0.0
 11
36.67955345524516
 21
83.25352768186474
 31
0.0
  0
LINE
  5
105
330
1F
100
AcDbEntity
  8
レイヤー 1
 62
     7
370
    13
100
AcDbLine
 10
36.67955345524516
 20
83.25352768186474
 30
0.0
 11
36.80667747865087
 21
83.67692991700193
 31
0.0
  0
LINE
  5
106
330
1F
100
AcDbEntity
  8
レイヤー 1
 62
     7
370
    13
100
AcDbLine
 10
36.80667747865087
 20
83.67692991700193
 30
0.0
 11
36.89125457281378
 21
84.14253457183344
 31
0.0
  0
LINE
  5
107
330
1F
100
AcDbEntity
  8
レイヤー 1
 62
     7
370
    13
100
AcDbLine
 10
36.89125457281378
 20
84.14253457183344
 30
0.0
 11
36.84887989834519
 21
84.14253457183344
 31
0.0
  0
POINT
  5
108
330
1F
100
AcDbEntity
  8
レイヤー 1
 62
     7
370
    13
100
AcDbPoint
 10
36.84887989834519
 20
84.14253457183344
 30
0.0
  0
LINE
  5
109
330
1F
100
AcDbEntity
  8
レイヤー 1
 62
     7
370
    13
100
AcDbLine
 10
36.84887989834519
 20
84.14253457183344
 30
0.0
 11
36.84887989834519
 21
84.18490924630203
 31
0.0
  0
LINE
  5
10A
330
1F
100
AcDbEntity
  8
レイヤー 1
 62
     7
370
    13
100
AcDbLine
 10
36.84887989834519
 20
84.18490924630203
 30
0.0
 11
36.84887989834519
 21
84.14253457183344
 31
0.0
  0
POINT
  5
10B
330
1F
100
AcDbEntity
  8
レイヤー 1
 62
     7
370
    13
100
AcDbPoint
 10
36.84887989834519
 20
84.22728392077059
 30
0.0
  0
LINE
  5
10C
330
1F
100
AcDbEntity
  8
レイヤー 1
 62
     7
370
    13
100
AcDbLine
 10
36.84887989834519
 20
84.22728392077059
 30
0.0
 11
36.84887989834519
 21
84.18490924630203
 31
0.0
  0
LINE
  5
10D
330
1F
100
AcDbEntity
  8
レイヤー 1
 62
     7
370
    13
100
AcDbLine
 10
36.84887989834519
 20
84.22728392077059
 30
0.0
 11
36.89125457281378
 21
84.22728392077059
 31
0.0
  0
LINE
  5
10E
330
1F
100
AcDbEntity
  8
レイヤー 1
 62
     7
370
    13
100
AcDbLine
 10
36.89125457281378
 20
84.22728392077059
 30
0.0
 11
37.22990745901382
 21
86.42852768107099
 31
0.0
  0
LINE
  5
10F
330
1F
100
AcDbEntity
  8
レイヤー 1
 62
     7
370
    13
100
AcDbLine
 10
37.22990745901382
 20
86.42852768107099
 30
0.0
 11
49.6760039185759
 21
87.10600570824536
 31
0.0
  0
POINT
  5
110
330
1F
100
AcDbEntity
  8
レイヤー 1
 62
     7
370
    13
100
AcDbPoint
 10
40.74356034442013
 20
78.8508679064897
 30
0.0
  0
LINE
  5
111
330
1F
100
AcDbEntity
  8
レイヤー 1
 62
     7
370
    13
100
AcDbLine
 10
40.74356034442013
 20
78.8508679064897
 30
0.0
 11
40.74356034442013
 21
78.80849323202114
 31
0.0
  0
LINE
  5
112
330
1F
100
AcDbEntity
  8
レイヤー 1
 62
     7
370
    13
100
AcDbLine
 10
40.74356034442013
 20
78.80849323202114
 30
0.0
 11
40.78593501888869
 21
78.76629081232682
 31
0.0
  0
LINE
  5
113
330
1F
100
AcDbEntity
  8
レイヤー 1
 62
     7
370
    13
100
AcDbLine
 10
50.01465680477597
 20
84.81984034423357
 30
0.0
 11
50.01465680477597
 21
84.77763792453925
 31
0.0
  0
LINE
  5
114
330
1F
100
AcDbEntity
  8
レイヤー 1
 62
     7
370
    13
100
AcDbLine
 10
50.01465680477597
 20
84.77763792453925
 30
0.0
 11
50.05685922447029
 21
84.73526325007069
 31
0.0
  0
LINE
  5
115
330
1F
100
AcDbEntity
  8
レイヤー 1
 62
     7
370
    13
100
AcDbLine
 10
50.05685922447029
 20
84.73526325007069
 30
0.0
 11
50.09923389893885
 21
84.6928885756021
 31
0.0
  0
LINE
  5
116
330
1F
100
AcDbEntity
  8
レイヤー 1
 62
     7
370
    13
100
AcDbLine
 10
50.14160857340744
 20
84.90458969317072
 30
0.0
 11
50.183983247876
 21
84.90458969317072
 31
0.0
  0
LINE
  5
117
330
1F
100
AcDbEntity
  8
レイヤー 1
 62
     7
370
    13
100
AcDbLine
 10
50.183983247876
 20
84.90458969317072
 30
0.0
 11
50.14160857340744
 21
84.90458969317072
 31
0.0
  0
POINT
  5
118
330
1F
100
AcDbEntity
  8
レイヤー 1
 62
     7
370
    13
100
AcDbPoint
 10
50.48026145960748
 20
87.02125635930821
 30
0.0
  0
LINE
  5
119
330
1F
100
AcDbEntity
  8
レイヤー 1
 62
     7
370
    13
100
AcDbLine
 10
50.48026145960748
 20
87.02125635930821
 30
0.0
 11
50.43788678513891
 21
87.02125635930821
 31
0.0
  0
LINE
  5
11A
330
1F
100
AcDbEntity
  8
レイヤー 1
 62
     7
370
    13
100
AcDbLine
 10
50.14160857340744
 20
84.81984034423357
 30
0.0
 11
50.05685922447029
 21
84.86221501870213
 31
0.0
  0
LINE
  5
11B
330
1F
100
AcDbEntity
  8
レイヤー 1
 62
     7
370
    13
100
AcDbLine
 10
50.01465680477597
 20
84.81984034423357
 30
0.0
 11
50.09923389893885
 21
84.77763792453925
 31
0.0
  0
LINE
  5
11C
330
1F
100
AcDbEntity
  8
レイヤー 1
 62
     7
370
    13
100
AcDbLine
 10
50.09923389893885
 20
84.77763792453925
 30
0.0
 11
50.14160857340744
 21
84.81984034423357
 31
0.0
  0
LINE
  5
11D
330
1F
100
AcDbEntity
  8
レイヤー 1
 62
     7
370
    13
100
AcDbLine
 10
50.09923389893885
 20
84.73526325007069
 30
0.0
 11
50.09923389893885
 21
84.77763792453925
 31
0.0
  0
LINE
  5
11E
330
1F
100
AcDbEntity
  8
レイヤー 1
 62
     7
370
    13
100
AcDbLine
 10
50.14160857340744
 20
84.77763792453925
 30
0.0
 11
50.09923389893885
 21
84.77763792453925
 31
0.0
  0
POINT
  5
11F
330
1F
100
AcDbEntity
  8
レイヤー 1
 62
     7
370
    13
100
AcDbPoint
 10
50.48026145960748
 20
87.10600570824536
 30
0.0
  0
LINE
  5
120
330
1F
100
AcDbEntity
  8
レイヤー 1
 62
     7
370
    13
100
AcDbLine
 10
50.48026145960748
 20
87.10600570824536
 30
0.0
 11
50.48026145960748
 21
87.14820812793968
 31
0.0
  0
POINT
  5
121
330
1F
100
AcDbEntity
  8
レイヤー 1
 62
     7
370
    13
100
AcDbPoint
 10
49.76058101273878
 20
87.19058280240824
 30
0.0
  0
LINE
  5
122
330
1F
100
AcDbEntity
  8
レイヤー 1
 62
     7
370
    13
100
AcDbLine
 10
49.76058101273878
 20
87.19058280240824
 30
0.0
 11
49.71820633827022
 21
87.19058280240824
 31
0.0
  0
LINE
  5
123
330
1F
100
AcDbEntity
  8
レイヤー 1
 62
     7
370
    13
100
AcDbLine
 10
49.71820633827022
 20
87.19058280240824
 30
0.0
 11
49.71820633827022
 21
87.14820812793968
 31
0.0
  0
LINE
  5
124
330
1F
100
AcDbEntity
  8
レイヤー 1
 62
     7
370
    13
100
AcDbLine
 10
49.71820633827022
 20
87.14820812793968
 30
0.0
 11
49.6760039185759
 21
87.14820812793968
 31
0.0
  0
LINE
  5
125
330
1F
100
AcDbEntity
  8
レイヤー 1
 62
     7
370
    13
100
AcDbLine
 10
49.6760039185759
 20
87.14820812793968
 30
0.0
 11
49.6760039185759
 21
87.10600570824536
 31
0.0
  0
LINE
  5
126
330
1F
100
AcDbEntity
  8
レイヤー 1
 62
     7
370
    13
100
AcDbLine
 10
37.31465680795097
 20
86.51327703000811
 30
0.0
 11
37.27228213348241
 21
86.51327703000811
 31
0.0
  0
LINE
  5
127
330
1F
100
AcDbEntity
  8
レイヤー 1
 62
     7
370
    13
100
AcDbLine
 10
37.27228213348241
 20
86.51327703000811
 30
0.0
 11
37.22990745901382
 21
86.51327703000811
 31
0.0
  0
LINE
  5
128
330
1F
100
AcDbEntity
  8
レイヤー 1
 62
     7
370
    13
100
AcDbLine
 10
37.22990745901382
 20
86.51327703000811
 30
0.0
 11
37.22990745901382
 21
86.47090235553955
 31
0.0
  0
LINE
  5
129
330
1F
100
AcDbEntity
  8
レイヤー 1
 62
     7
370
    13
100
AcDbLine
 10
37.22990745901382
 20
86.47090235553955
 30
0.0
 11
37.22990745901382
 21
86.42852768107099
 31
0.0
  0
LINE
  5
12A
330
1F
100
AcDbEntity
  8
レイヤー 1
 62
     7
370
    13
100
AcDbLine
 10
49.76058101273878
 20
87.19058280240824
 30
0.0
 11
49.76058101273878
 21
87.10600570824536
 31
0.0
  0
LINE
  5
12B
330
1F
100
AcDbEntity
  8
レイヤー 1
 62
     7
370
    13
100
AcDbLine
 10
49.76058101273878
 20
87.19058280240824
 30
0.0
 11
50.01465680477597
 21
87.14820812793968
 31
0.0
  0
LINE
  5
12C
330
1F
100
AcDbEntity
  8
レイヤー 1
 62
     7
370
    13
100
AcDbLine
 10
40.70118566995157
 20
78.76629081232682
 30
0.0
 11
40.61660857578869
 21
78.76629081232682
 31
0.0
  0
LINE
  5
12D
330
1F
100
AcDbEntity
  8
レイヤー 1
 62
     7
370
    13
100
AcDbLine
 10
40.70118566995157
 20
78.76629081232682
 30
0.0
 11
40.74356034442013
 21
78.80849323202114
 31
0.0
  0
LINE
  5
12E
330
1F
100
AcDbEntity
  8
レイヤー 1
 62
     7
370
    13
100
AcDbLine
 10
40.61660857578869
 20
78.76629081232682
 30
0.0
 11
40.70118566995157
 21
78.72391613785825
 31
0.0
  0
LINE
  5
12F
330
1F
100
AcDbEntity
  8
レイヤー 1
 62
     7
370
    13
100
AcDbLine
 10
40.61660857578869
 20
78.76629081232682
 30
0.0
 11
40.70118566995157
 21
78.72391613785825
 31
0.0
  0
POINT
  5
130
330
1F
100
AcDbEntity
  8
レイヤー 1
 62
     7
370
    13
100
AcDbPoint
 10
40.70118566995157
 20
78.72391613785825
 30
0.0
  0
LINE
  5
131
330
1F
100
AcDbEntity
  8
レイヤー 1
 62
     7
370
    13
100
AcDbLine
 10
40.70118566995157
 20
78.72391613785825
 30
0.0
 11
40.70118566995157
 21
78.76629081232682
 31
0.0
  0
LINE
  5
132
330
1F
100
AcDbEntity
  8
レイヤー 1
 62
     7
370
    13
100
AcDbLine
 10
40.40490745822007
 20
78.76629081232682
 30
0.0
 11
40.48965680715722
 21
78.72391613785825
 31
0.0
  0
LINE
  5
133
330
1F
100
AcDbEntity
  8
レイヤー 1
 62
     7
370
    13
100
AcDbLine
 10
40.48965680715722
 20
78.72391613785825
 30
0.0
 11
40.70118566995157
 21
78.72391613785825
 31
0.0
  0
LINE
  5
134
330
1F
100
AcDbEntity
  8
レイヤー 1
 62
     7
370
    13
100
AcDbLine
 10
29.22901770406961
 20
78.1735621340896
 30
0.0
 11
29.22901770406961
 21
78.131187459621
 31
0.0
  0
LINE
  5
135
330
1F
100
AcDbEntity
  8
レイヤー 1
 62
     7
370
    13
100
AcDbLine
 10
29.22901770406961
 20
78.131187459621
 30
0.0
 11
29.22901770406961
 21
78.08898503992668
 31
0.0
  0
LINE
  5
136
330
1F
100
AcDbEntity
  8
レイヤー 1
 62
     7
370
    13
100
AcDbLine
 10
29.22901770406961
 20
78.08898503992668
 30
0.0
 11
29.27122012376392
 21
78.04661036545812
 31
0.0
  0
LINE
  5
137
330
1F
100
AcDbEntity
  8
レイヤー 1
 62
     7
370
    13
100
AcDbLine
 10
40.40490745822007
 20
78.76629081232682
 30
0.0
 11
40.40490745822007
 21
78.72391613785825
 31
0.0
  0
LINE
  5
138
330
1F
100
AcDbEntity
  8
レイヤー 1
 62
     7
370
    13
100
AcDbLine
 10
40.40490745822007
 20
78.72391613785825
 30
0.0
 11
40.40490745822007
 21
78.68154146338966
 31
0.0
  0
LINE
  5
139
330
1F
100
AcDbEntity
  8
レイヤー 1
 62
     7
370
    13
100
AcDbLine
 10
40.40490745822007
 20
78.68154146338966
 30
0.0
 11
40.40490745822007
 21
78.63933904369537
 31
0.0
  0
LINE
  5
13A
330
1F
100
AcDbEntity
  8
レイヤー 1
 62
     7
370
    13
100
AcDbLine
 10
40.44728213268866
 20
78.63933904369537
 30
0.0
 11
40.48965680715722
 21
78.72391613785825
 31
0.0
  0
LINE
  5
13B
330
1F
100
AcDbEntity
  8
レイヤー 1
 62
     7
370
    13
100
AcDbLine
 10
40.61660857578869
 20
78.68154146338966
 30
0.0
 11
40.48965680715722
 21
78.72391613785825
 31
0.0
  0
LINE
  5
13C
330
1F
100
AcDbEntity
  8
レイヤー 1
 62
     7
370
    13
100
AcDbLine
 10
40.15100392095715
 20
78.3428885771896
 30
0.0
 11
40.19320634065147
 21
78.3428885771896
 31
0.0
  0
LINE
  5
13D
330
1F
100
AcDbEntity
  8
レイヤー 1
 62
     7
370
    13
100
AcDbLine
 10
34.43593502047619
 20
84.015582803202
 30
0.0
 11
34.35118567153907
 21
84.015582803202
 31
0.0
  0
LINE
  5
13E
330
1F
100
AcDbEntity
  8
レイヤー 1
 62
     7
370
    13
100
AcDbLine
 10
34.56288678910767
 20
82.40689546636457
 30
0.0
 11
34.60526146357623
 21
82.32231837220169
 31
0.0
  0
LINE
  5
13F
330
1F
100
AcDbEntity
  8
レイヤー 1
 62
     7
370
    13
100
AcDbLine
 10
34.60526146357623
 20
82.32231837220169
 30
0.0
 11
34.64763613804482
 21
82.23756902326454
 31
0.0
  0
LINE
  5
140
330
1F
100
AcDbEntity
  8
レイヤー 1
 62
     7
370
    13
100
AcDbLine
 10
34.64763613804482
 20
82.23756902326454
 30
0.0
 11
34.69001081251338
 21
82.15299192910166
 31
0.0
  0
LINE
  5
141
330
1F
100
AcDbEntity
  8
レイヤー 1
 62
     7
370
    13
100
AcDbLine
 10
34.69001081251338
 20
82.15299192910166
 30
0.0
 11
34.77458790667626
 21
82.06824258016451
 31
0.0
  0
LINE
  5
142
330
1F
100
AcDbEntity
  8
レイヤー 1
 62
     7
370
    13
100
AcDbLine
 10
34.77458790667626
 20
82.06824258016451
 30
0.0
 11
34.81696258114485
 21
82.02586790569595
 31
0.0
  0
LINE
  5
143
330
1F
100
AcDbEntity
  8
レイヤー 1
 62
     7
370
    13
100
AcDbLine
 10
34.81696258114485
 20
82.02586790569595
 30
0.0
 11
34.90153967530773
 21
81.94129081153307
 31
0.0
  0
LINE
  5
144
330
1F
100
AcDbEntity
  8
レイヤー 1
 62
     7
370
    13
100
AcDbLine
 10
34.90153967530773
 20
81.94129081153307
 30
0.0
 11
34.98628902424485
 21
81.8989161370645
 31
0.0
  0
LINE
  5
145
330
1F
100
AcDbEntity
  8
レイヤー 1
 62
     7
370
    13
100
AcDbLine
 10
34.98628902424485
 20
81.8989161370645
 30
0.0
 11
35.07086611840776
 21
81.81433904290162
 31
0.0
  0
LINE
  5
146
330
1F
100
AcDbEntity
  8
レイヤー 1
 62
     7
370
    13
100
AcDbLine
 10
35.07086611840776
 20
81.81433904290162
 30
0.0
 11
35.15561546734489
 21
81.77196436843303
 31
0.0
  0
LINE
  5
147
330
1F
100
AcDbEntity
  8
レイヤー 1
 62
     7
370
    13
100
AcDbLine
 10
34.43593502047619
 20
84.015582803202
 30
0.0
 11
34.39356034600763
 21
83.54997814837049
 31
0.0
  0
LINE
  5
148
330
1F
100
AcDbEntity
  8
レイヤー 1
 62
     7
370
    13
100
AcDbLine
 10
34.39356034600763
 20
83.54997814837049
 30
0.0
 11
34.39356034600763
 21
83.12657591323327
 31
0.0
  0
LINE
  5
149
330
1F
100
AcDbEntity
  8
レイヤー 1
 62
     7
370
    13
100
AcDbLine
 10
34.39356034600763
 20
83.12657591323327
 30
0.0
 11
34.47830969494478
 21
82.74554835256464
 31
0.0
  0
LINE
  5
14A
330
1F
100
AcDbEntity
  8
レイヤー 1
 62
     7
370
    13
100
AcDbLine
 10
34.47830969494478
 20
82.74554835256464
 30
0.0
 11
34.56288678910767
 21
82.40689546636457
 31
0.0
  0
LINE
  5
14B
330
1F
100
AcDbEntity
  8
レイヤー 1
 62
     7
370
    13
100
AcDbLine
 10
34.56288678910767
 20
82.40689546636457
 30
0.0
 11
34.7322132322077
 21
82.15299192910166
 31
0.0
  0
LINE
  5
14C
330
1F
100
AcDbEntity
  8
レイヤー 1
 62
     7
370
    13
100
AcDbLine
 10
34.7322132322077
 20
82.15299192910166
 30
0.0
 11
34.90153967530773
 21
81.94129081153307
 31
0.0
  0
LINE
  5
14D
330
1F
100
AcDbEntity
  8
レイヤー 1
 62
     7
370
    13
100
AcDbLine
 10
34.90153967530773
 20
81.94129081153307
 30
0.0
 11
35.11324079287633
 21
81.81433904290162
 31
0.0
  0
LINE
  5
14E
330
1F
100
AcDbEntity
  8
レイヤー 1
 62
     7
370
    13
100
AcDbLine
 10
35.11324079287633
 20
81.81433904290162
 30
0.0
 11
35.36731658491351
 21
81.77196436843303
 31
0.0
  0
LINE
  5
14F
330
1F
100
AcDbEntity
  8
レイヤー 1
 62
     7
370
    13
100
AcDbLine
 10
35.36731658491351
 20
81.77196436843303
 30
0.0
 11
35.4095190046078
 21
81.81433904290162
 31
0.0
  0
LINE
  5
150
330
1F
100
AcDbEntity
  8
レイヤー 1
 62
     7
370
    13
100
AcDbLine
 10
34.43593502047619
 20
84.015582803202
 30
0.0
 11
34.47830969494478
 21
84.015582803202
 31
0.0
  0
POINT
  5
151
330
1F
100
AcDbEntity
  8
レイヤー 1
 62
     7
370
    13
100
AcDbPoint
 10
34.47830969494478
 20
84.015582803202
 30
0.0
  0
LINE
  5
152
330
1F
100
AcDbEntity
  8
レイヤー 1
 62
     7
370
    13
100
AcDbLine
 10
34.47830969494478
 20
84.015582803202
 30
0.0
 11
34.47830969494478
 21
84.05795747767056
 31
0.0
  0
LINE
  5
153
330
1F
100
AcDbEntity
  8
レイヤー 1
 62
     7
370
    13
100
AcDbLine
 10
34.47830969494478
 20
84.05795747767056
 30
0.0
 11
34.47830969494478
 21
84.015582803202
 31
0.0
  0
POINT
  5
154
330
1F
100
AcDbEntity
  8
レイヤー 1
 62
     7
370
    13
100
AcDbPoint
 10
34.47830969494478
 20
84.05795747767056
 30
0.0
  0
LINE
  5
155
330
1F
100
AcDbEntity
  8
レイヤー 1
 62
     7
370
    13
100
AcDbLine
 10
34.47830969494478
 20
84.05795747767056
 30
0.0
 11
34.47830969494478
 21
84.10015989736488
 31
0.0
  0
LINE
  5
156
330
1F
100
AcDbEntity
  8
レイヤー 1
 62
     7
370
    13
100
AcDbLine
 10
34.77458790667626
 20
86.38632526137667
 30
0.0
 11
34.43593502047619
 21
84.10015989736488
 31
0.0
  0
LINE
  5
157
330
1F
100
AcDbEntity
  8
レイヤー 1
 62
     7
370
    13
100
AcDbLine
 10
37.27228213348241
 20
86.51327703000811
 30
0.0
 11
34.77458790667626
 21
86.38632526137667
 31
0.0
  0
LINE
  5
158
330
1F
100
AcDbEntity
  8
レイヤー 1
 62
     7
370
    13
100
AcDbLine
 10
37.27228213348241
 20
86.51327703000811
 30
0.0
 11
37.27228213348241
 21
86.47090235553955
 31
0.0
  0
LINE
  5
159
330
1F
100
AcDbEntity
  8
レイヤー 1
 62
     7
370
    13
100
AcDbLine
 10
35.24019256150777
 20
81.77196436843303
 30
0.0
 11
35.28256723597636
 21
81.77196436843303
 31
0.0
  0
LINE
  5
15A
330
1F
100
AcDbEntity
  8
レイヤー 1
 62
     7
370
    13
100
AcDbLine
 10
37.31465680795097
 20
86.51327703000811
 30
0.0
 11
37.27228213348241
 21
86.51327703000811
 31
0.0
  0
LINE
  5
15B
330
1F
100
AcDbEntity
  8
レイヤー 1
 62
     7
370
    13
100
AcDbLine
 10
34.47830969494478
 20
84.05795747767056
 30
0.0
 11
34.43593502047619
 21
84.05795747767056
 31
0.0
  0
LINE
  5
15C
330
1F
100
AcDbEntity
  8
レイヤー 1
 62
     7
370
    13
100
AcDbLine
 10
34.47830969494478
 20
84.015582803202
 30
0.0
 11
34.39356034600763
 21
84.015582803202
 31
0.0
  0
LINE
  5
15D
330
1F
100
AcDbEntity
  8
レイヤー 1
 62
     7
370
    13
100
AcDbLine
 10
34.47830969494478
 20
84.05795747767056
 30
0.0
 11
34.43593502047619
 21
84.05795747767056
 31
0.0
  0
LINE
  5
15E
330
1F
100
AcDbEntity
  8
レイヤー 1
 62
     7
370
    13
100
AcDbLine
 10
34.77458790667626
 20
86.38632526137667
 30
0.0
 11
34.7322132322077
 21
86.38632526137667
 31
0.0
  0
LINE
  5
15F
330
1F
100
AcDbEntity
  8
レイヤー 1
 62
     7
370
    13
100
AcDbLine
 10
34.7322132322077
 20
86.38632526137667
 30
0.0
 11
34.69001081251338
 21
86.34395058690811
 31
0.0
  0
LINE
  5
160
330
1F
100
AcDbEntity
  8
レイヤー 1
 62
     7
370
    13
100
AcDbLine
 10
34.69001081251338
 20
86.34395058690811
 30
0.0
 11
34.69001081251338
 21
86.30157591243952
 31
0.0
  0
LINE
  5
161
330
1F
100
AcDbEntity
  8
レイヤー 1
 62
     7
370
    13
100
AcDbLine
 10
22.28628902741987
 20
85.75122190867086
 30
0.0
 11
22.28628902741987
 21
85.70901948897654
 31
0.0
  0
LINE
  5
162
330
1F
100
AcDbEntity
  8
レイヤー 1
 62
     7
370
    13
100
AcDbLine
 10
22.28628902741987
 20
85.70901948897654
 30
0.0
 11
22.24391435295129
 21
85.70901948897654
 31
0.0
  0
LINE
  5
163
330
1F
100
AcDbEntity
  8
レイヤー 1
 62
     7
370
    13
100
AcDbLine
 10
22.24391435295129
 20
85.70901948897654
 30
0.0
 11
22.24391435295129
 21
85.66664481450798
 31
0.0
  0
LINE
  5
164
330
1F
100
AcDbEntity
  8
レイヤー 1
 62
     7
370
    13
100
AcDbLine
 10
29.10189368066389
 20
78.131187459621
 30
0.0
 11
29.01731658650101
 21
78.131187459621
 31
0.0
  0
LINE
  5
165
330
1F
100
AcDbEntity
  8
レイヤー 1
 62
     7
370
    13
100
AcDbLine
 10
29.10189368066389
 20
78.131187459621
 30
0.0
 11
29.22901770406961
 21
78.131187459621
 31
0.0
  0
LINE
  5
166
330
1F
100
AcDbEntity
  8
レイヤー 1
 62
     7
370
    13
100
AcDbLine
 10
28.97494191203242
 20
78.131187459621
 30
0.0
 11
28.97494191203242
 21
78.1735621340896
 31
0.0
  0
LINE
  5
167
330
1F
100
AcDbEntity
  8
レイヤー 1
 62
     7
370
    13
100
AcDbLine
 10
28.89019256309527
 20
78.25831148302672
 30
0.0
 11
28.89019256309527
 21
78.21593680855815
 31
0.0
  0
LINE
  5
168
330
1F
100
AcDbEntity
  8
レイヤー 1
 62
     7
370
    13
100
AcDbLine
 10
28.89019256309527
 20
78.21593680855815
 30
0.0
 11
28.89019256309527
 21
78.1735621340896
 31
0.0
  0
LINE
  5
169
330
1F
100
AcDbEntity
  8
レイヤー 1
 62
     7
370
    13
100
AcDbLine
 10
28.89019256309527
 20
78.1735621340896
 30
0.0
 11
28.93256723756386
 21
78.1735621340896
 31
0.0
  0
LINE
  5
16A
330
1F
100
AcDbEntity
  8
レイヤー 1
 62
     7
370
    13
100
AcDbLine
 10
28.93256723756386
 20
78.1735621340896
 30
0.0
 11
28.93256723756386
 21
78.131187459621
 31
0.0
  0
LINE
  5
16B
330
1F
100
AcDbEntity
  8
レイヤー 1
 62
     7
370
    13
100
AcDbLine
 10
28.93256723756386
 20
78.131187459621
 30
0.0
 11
28.97494191203242
 21
78.131187459621
 31
0.0
  0
LINE
  5
16C
330
1F
100
AcDbEntity
  8
レイヤー 1
 62
     7
370
    13
100
AcDbLine
 10
21.22795569435112
 20
83.2959023563333
 30
0.0
 11
21.22795569435112
 21
83.25352768186474
 31
0.0
  0
LINE
  5
16D
330
1F
100
AcDbEntity
  8
レイヤー 1
 62
     7
370
    13
100
AcDbLine
 10
21.22795569435112
 20
83.25352768186474
 30
0.0
 11
21.22795569435112
 21
83.21132526217042
 31
0.0
  0
LINE
  5
16E
330
1F
100
AcDbEntity
  8
レイヤー 1
 62
     7
370
    13
100
AcDbLine
 10
21.22795569435112
 20
83.21132526217042
 30
0.0
 11
21.22795569435112
 21
83.16895058770186
 31
0.0
  0
LINE
  5
16F
330
1F
100
AcDbEntity
  8
レイヤー 1
 62
     7
370
    13
100
AcDbLine
 10
28.97494191203242
 20
78.131187459621
 30
0.0
 11
29.22901770406961
 21
78.08898503992668
 31
0.0
  0
POINT
  5
170
330
1F
100
AcDbEntity
  8
レイヤー 1
 62
     7
370
    13
100
AcDbPoint
 10
21.14320634541397
 20
83.38065170527045
 30
0.0
  0
POINT
  5
171
330
1F
100
AcDbEntity
  8
レイヤー 1
 62
     7
370
    13
100
AcDbPoint
 10
21.43965681191972
 20
85.49731837140794
 30
0.0
  0
LINE
  5
172
330
1F
100
AcDbEntity
  8
レイヤー 1
 62
     7
370
    13
100
AcDbLine
 10
40.61660857578869
 20
78.59696436922678
 30
0.0
 11
289.8752958507137
 21
23.39430460655174
 31
0.0
  0
LINE
  5
173
330
1F
100
AcDbEntity
  8
レイヤー 1
 62
     7
370
    13
100
AcDbLine
 10
50.05685922447029
 20
84.56593680697065
 30
0.0
 11
40.61660857578869
 21
78.59696436922678
 31
0.0
  0
LINE
  5
174
330
1F
100
AcDbEntity
  8
レイヤー 1
 62
     7
370
    13
100
AcDbLine
 10
50.05685922447029
 20
84.56593680697065
 30
0.0
 11
299.3155464993952
 21
29.36327704429561
 31
0.0
  0
LINE
  5
175
330
1F
100
AcDbEntity
  8
レイヤー 1
 62
     7
370
    13
100
AcDbLine
 10
299.3155464993952
 20
29.36327704429561
 30
0.0
 11
289.8752958507137
 21
23.39430460655174
 31
0.0
  0
LINE
  5
176
330
1F
100
AcDbEntity
  8
レイヤー 1
 62
     7
370
    13
100
AcDbLine
 10
76.85401769216335
 20
72.20458969634572
 30
0.0
 11
77.91235102523211
 21
71.9928885787771
 31
0.0
  0
LINE
  5
177
330
1F
100
AcDbEntity
  8
レイヤー 1
 62
     7
370
    13
100
AcDbLine
 10
76.85401769216335
 20
72.20458969634572
 30
0.0
 11
76.81164301769479
 21
72.20458969634572
 31
0.0
  0
LINE
  5
178
330
1F
100
AcDbEntity
  8
レイヤー 1
 62
     7
370
    13
100
AcDbLine
 10
76.81164301769479
 20
72.20458969634572
 30
0.0
 11
76.7692683432262
 21
72.20458969634572
 31
0.0
  0
LINE
  5
179
330
1F
100
AcDbEntity
  8
レイヤー 1
 62
     7
370
    13
100
AcDbLine
 10
76.7692683432262
 20
72.20458969634572
 30
0.0
 11
76.72689366875764
 21
72.20458969634572
 31
0.0
  0
LINE
  5
17A
330
1F
100
AcDbEntity
  8
レイヤー 1
 62
     7
370
    13
100
AcDbLine
 10
76.64231657459476
 20
71.69661036704562
 30
0.0
 11
76.72689366875764
 21
72.20458969634572
 31
0.0
  0
LINE
  5
17B
330
1F
100
AcDbEntity
  8
レイヤー 1
 62
     7
370
    13
100
AcDbLine
 10
256.4744061021194
 20
32.45352769456471
 30
0.0
 11
257.5327394351881
 21
32.19962415730183
 31
0.0
  0
LINE
  5
17C
330
1F
100
AcDbEntity
  8
レイヤー 1
 62
     7
370
    13
100
AcDbLine
 10
256.4744061021194
 20
32.45352769456471
 30
0.0
 11
256.4320314276508
 21
32.45352769456471
 31
0.0
  0
LINE
  5
17D
330
1F
100
AcDbEntity
  8
レイヤー 1
 62
     7
370
    13
100
AcDbLine
 10
256.4320314276508
 20
32.45352769456471
 30
0.0
 11
256.3896567531822
 21
32.45352769456471
 31
0.0
  0
LINE
  5
17E
330
1F
100
AcDbEntity
  8
レイヤー 1
 62
     7
370
    13
100
AcDbLine
 10
256.3896567531822
 20
32.45352769456471
 30
0.0
 11
256.3472820787136
 21
32.41132527487042
 31
0.0
  0
LINE
  5
17F
330
1F
100
AcDbEntity
  8
レイヤー 1
 62
     7
370
    13
100
AcDbLine
 10
256.2625327297765
 20
31.90317369079605
 30
0.0
 11
256.3472820787136
 21
32.41132527487042
 31
0.0
  0
LINE
  5
180
330
1F
100
AcDbEntity
  8
レイヤー 1
 62
     7
370
    13
100
AcDbLine
 10
50.05685922447029
 20
84.56593680697065
 30
0.0
 11
50.05685922447029
 21
84.6928885756021
 31
0.0
  0
LINE
  5
181
330
1F
100
AcDbEntity
  8
レイヤー 1
 62
     7
370
    13
100
AcDbLine
 10
40.61660857578869
 20
78.68154146338966
 30
0.0
 11
40.61660857578869
 21
78.59696436922678
 31
0.0
  0
LINE
  5
182
330
1F
100
AcDbEntity
  8
レイヤー 1
 62
     7
370
    13
100
AcDbLine
 10
50.05685922447029
 20
84.6928885756021
 30
0.0
 11
40.61660857578869
 21
78.68154146338966
 31
0.0
  0
LINE
  5
183
330
1F
100
AcDbEntity
  8
レイヤー 1
 62
     7
370
    13
100
AcDbLine
 10
50.05685922447029
 20
84.56593680697065
 30
0.0
 11
50.09923389893885
 21
84.6506861559078
 31
0.0
  0
LINE
  5
184
330
1F
100
AcDbEntity
  8
レイヤー 1
 62
     7
370
    13
100
AcDbLine
 10
50.09923389893885
 20
84.6506861559078
 30
0.0
 11
50.14160857340744
 21
84.6928885756021
 31
0.0
  0
LINE
  5
185
330
1F
100
AcDbEntity
  8
レイヤー 1
 62
     7
370
    13
100
AcDbLine
 10
50.14160857340744
 20
84.6928885756021
 30
0.0
 11
50.183983247876
 21
84.77763792453925
 31
0.0
  0
LINE
  5
186
330
1F
100
AcDbEntity
  8
レイヤー 1
 62
     7
370
    13
100
AcDbLine
 10
50.183983247876
 20
84.77763792453925
 30
0.0
 11
50.22618566757032
 21
84.81984034423357
 31
0.0
  0
LINE
  5
187
330
1F
100
AcDbEntity
  8
レイヤー 1
 62
     7
370
    13
100
AcDbLine
 10
50.22618566757032
 20
84.81984034423357
 30
0.0
 11
50.22618566757032
 21
84.90458969317072
 31
0.0
  0
LINE
  5
188
330
1F
100
AcDbEntity
  8
レイヤー 1
 62
     7
370
    13
100
AcDbLine
 10
50.22618566757032
 20
84.90458969317072
 30
0.0
 11
299.4850451972695
 21
29.70192993049568
 31
0.0
  0
LINE
  5
189
330
1F
100
AcDbEntity
  8
レイヤー 1
 62
     7
370
    13
100
AcDbLine
 10
299.3155464993952
 20
29.36327704429561
 30
0.0
 11
299.3579211738638
 21
29.4478541384585
 31
0.0
  0
LINE
  5
18A
330
1F
100
AcDbEntity
  8
レイヤー 1
 62
     7
370
    13
100
AcDbLine
 10
299.3579211738638
 20
29.4478541384585
 30
0.0
 11
299.4002958483323
 21
29.49022881292709
 31
0.0
  0
LINE
  5
18B
330
1F
100
AcDbEntity
  8
レイヤー 1
 62
     7
370
    13
100
AcDbLine
 10
299.4002958483323
 20
29.49022881292709
 30
0.0
 11
299.4426705228009
 21
29.57497816186424
 31
0.0
  0
LINE
  5
18C
330
1F
100
AcDbEntity
  8
レイヤー 1
 62
     7
370
    13
100
AcDbLine
 10
299.4426705228009
 20
29.57497816186424
 30
0.0
 11
299.4850451972695
 21
29.6173528363328
 31
0.0
  0
LINE
  5
18D
330
1F
100
AcDbEntity
  8
レイヤー 1
 62
     7
370
    13
100
AcDbLine
 10
299.4850451972695
 20
29.6173528363328
 30
0.0
 11
299.4850451972695
 21
29.70192993049568
 31
0.0
  0
LINE
  5
18E
330
1F
100
AcDbEntity
  8
レイヤー 1
 62
     7
370
    13
100
AcDbLine
 10
50.05685922447029
 20
84.6928885756021
 30
0.0
 11
50.09923389893885
 21
84.6928885756021
 31
0.0
  0
LINE
  5
18F
330
1F
100
AcDbEntity
  8
レイヤー 1
 62
     7
370
    13
100
AcDbLine
 10
50.09923389893885
 20
84.6928885756021
 30
0.0
 11
50.14160857340744
 21
84.73526325007069
 31
0.0
  0
LINE
  5
190
330
1F
100
AcDbEntity
  8
レイヤー 1
 62
     7
370
    13
100
AcDbLine
 10
50.14160857340744
 20
84.73526325007069
 30
0.0
 11
50.14160857340744
 21
84.81984034423357
 31
0.0
  0
LINE
  5
191
330
1F
100
AcDbEntity
  8
レイヤー 1
 62
     7
370
    13
100
AcDbLine
 10
50.14160857340744
 20
84.81984034423357
 30
0.0
 11
50.14160857340744
 21
84.86221501870213
 31
0.0
  0
LINE
  5
192
330
1F
100
AcDbEntity
  8
レイヤー 1
 62
     7
370
    13
100
AcDbLine
 10
50.14160857340744
 20
84.86221501870213
 30
0.0
 11
50.183983247876
 21
84.90458969317072
 31
0.0
  0
LINE
  5
193
330
1F
100
AcDbEntity
  8
レイヤー 1
 62
     7
370
    13
100
AcDbLine
 10
50.183983247876
 20
84.90458969317072
 30
0.0
 11
50.22618566757032
 21
84.90458969317072
 31
0.0
  0
LINE
  5
194
330
1F
100
AcDbEntity
  8
レイヤー 1
 62
     7
370
    13
100
AcDbLine
 10
50.56501080854463
 20
87.2329574768768
 30
0.0
 11
50.22618566757032
 21
84.90458969317072
 31
0.0
  0
LINE
  5
195
330
1F
100
AcDbEntity
  8
レイヤー 1
 62
     7
370
    13
100
AcDbLine
 10
299.8236980834696
 20
32.03029771420179
 30
0.0
 11
50.56501080854463
 21
87.2329574768768
 31
0.0
  0
LINE
  5
196
330
1F
100
AcDbEntity
  8
レイヤー 1
 62
     7
370
    13
100
AcDbLine
 10
299.8236980834696
 20
32.03029771420179
 30
0.0
 11
299.4850451972695
 21
29.70192993049568
 31
0.0
  0
LINE
  5
197
330
1F
100
AcDbEntity
  8
レイヤー 1
 62
     7
370
    13
100
AcDbLine
 10
50.52263613407607
 20
87.2329574768768
 30
0.0
 11
50.56501080854463
 21
87.2329574768768
 31
0.0
  0
LINE
  5
198
330
1F
100
AcDbEntity
  8
レイヤー 1
 62
     7
370
    13
100
AcDbLine
 10
50.52263613407607
 20
87.2329574768768
 30
0.0
 11
50.183983247876
 21
84.90458969317072
 31
0.0
  0
POINT
  5
199
330
1F
100
AcDbEntity
  8
レイヤー 1
 62
     7
370
    13
100
AcDbPoint
 10
299.7813234090009
 20
32.11487480836468
 30
0.0
  0
LINE
  5
19A
330
1F
100
AcDbEntity
  8
レイヤー 1
 62
     7
370
    13
100
AcDbLine
 10
299.7813234090009
 20
32.11487480836468
 30
0.0
 11
299.8236980834696
 21
32.11487480836468
 31
0.0
  0
LINE
  5
19B
330
1F
100
AcDbEntity
  8
レイヤー 1
 62
     7
370
    13
100
AcDbLine
 10
299.8236980834696
 20
32.11487480836468
 30
0.0
 11
299.8236980834696
 21
32.07267238867036
 31
0.0
  0
LINE
  5
19C
330
1F
100
AcDbEntity
  8
レイヤー 1
 62
     7
370
    13
100
AcDbLine
 10
299.8236980834696
 20
32.07267238867036
 30
0.0
 11
299.8236980834696
 21
32.03029771420179
 31
0.0
  0
LINE
  5
19D
330
1F
100
AcDbEntity
  8
レイヤー 1
 62
     7
370
    13
100
AcDbLine
 10
50.56501080854463
 20
87.2329574768768
 30
0.0
 11
50.56501080854463
 21
87.27515989657113
 31
0.0
  0
LINE
  5
19E
330
1F
100
AcDbEntity
  8
レイヤー 1
 62
     7
370
    13
100
AcDbLine
 10
50.56501080854463
 20
87.27515989657113
 30
0.0
 11
50.56501080854463
 21
87.31753457103969
 31
0.0
  0
LINE
  5
19F
330
1F
100
AcDbEntity
  8
レイヤー 1
 62
     7
370
    13
100
AcDbLine
 10
50.56501080854463
 20
87.31753457103969
 30
0.0
 11
50.52263613407607
 21
87.31753457103969
 31
0.0
  0
LINE
  5
1A0
330
1F
100
AcDbEntity
  8
レイヤー 1
 62
     7
370
    13
100
AcDbLine
 10
50.52263613407607
 20
87.31753457103969
 30
0.0
 11
50.52263613407607
 21
87.35990924550828
 31
0.0
  0
LINE
  5
1A1
330
1F
100
AcDbEntity
  8
レイヤー 1
 62
     7
370
    13
100
AcDbLine
 10
50.52263613407607
 20
87.2329574768768
 30
0.0
 11
50.52263613407607
 21
87.35990924550828
 31
0.0
  0
LINE
  5
1A2
330
1F
100
AcDbEntity
  8
レイヤー 1
 62
     7
370
    13
100
AcDbLine
 10
49.46430280100731
 20
87.19058280240824
 30
0.0
 11
49.54887989517019
 21
87.19058280240824
 31
0.0
  0
LINE
  5
1A3
330
1F
100
AcDbEntity
  8
レイヤー 1
 62
     7
370
    13
100
AcDbLine
 10
49.46430280100731
 20
87.19058280240824
 30
0.0
 11
50.52263613407607
 21
87.2329574768768
 31
0.0
  0
LINE
  5
1A4
330
1F
100
AcDbEntity
  8
レイヤー 1
 62
     7
370
    13
100
AcDbLine
 10
49.46430280100731
 20
87.19058280240824
 30
0.0
 11
49.46430280100731
 21
87.27515989657113
 31
0.0
  0
LINE
  5
1A5
330
1F
100
AcDbEntity
  8
レイヤー 1
 62
     7
370
    13
100
AcDbLine
 10
49.46430280100731
 20
87.27515989657113
 30
0.0
 11
50.52263613407607
 21
87.35990924550828
 31
0.0
  0
LINE
  5
1A6
330
1F
100
AcDbEntity
  8
レイヤー 1
 62
     7
370
    13
100
AcDbLine
 10
40.5742339013201
 20
78.55458969475822
 30
0.0
 11
289.832921176245
 21
23.35192993208318
 31
0.0
  0
POINT
  5
1A7
330
1F
100
AcDbEntity
  8
レイヤー 1
 62
     7
370
    13
100
AcDbPoint
 10
40.5742339013201
 20
78.55458969475822
 30
0.0
  0
LINE
  5
1A8
330
1F
100
AcDbEntity
  8
レイヤー 1
 62
     7
370
    13
100
AcDbLine
 10
40.5742339013201
 20
78.55458969475822
 30
0.0
 11
40.61660857578869
 21
78.59696436922678
 31
0.0
  0
POINT
  5
1A9
330
1F
100
AcDbEntity
  8
レイヤー 1
 62
     7
370
    13
100
AcDbPoint
 10
289.832921176245
 20
23.35192993208318
 30
0.0
  0
LINE
  5
1AA
330
1F
100
AcDbEntity
  8
レイヤー 1
 62
     7
370
    13
100
AcDbLine
 10
289.832921176245
 20
23.35192993208318
 30
0.0
 11
289.8752958507137
 21
23.35192993208318
 31
0.0
  0
LINE
  5
1AB
330
1F
100
AcDbEntity
  8
レイヤー 1
 62
     7
370
    13
100
AcDbLine
 10
289.8752958507137
 20
23.35192993208318
 30
0.0
 11
289.8752958507137
 21
23.39430460655174
 31
0.0
  0
LINE
  5
1AC
330
1F
100
AcDbEntity
  8
レイヤー 1
 62
     7
370
    13
100
AcDbLine
 10
40.5742339013201
 20
78.55458969475822
 30
0.0
 11
40.5742339013201
 21
78.68154146338966
 31
0.0
  0
POINT
  5
1AD
330
1F
100
AcDbEntity
  8
レイヤー 1
 62
     7
370
    13
100
AcDbPoint
 10
40.5742339013201
 20
78.68154146338966
 30
0.0
  0
LINE
  5
1AE
330
1F
100
AcDbEntity
  8
レイヤー 1
 62
     7
370
    13
100
AcDbLine
 10
40.5742339013201
 20
78.68154146338966
 30
0.0
 11
40.61660857578869
 21
78.68154146338966
 31
0.0
  0
LINE
  5
1AF
330
1F
100
AcDbEntity
  8
レイヤー 1
 62
     7
370
    13
100
AcDbLine
 10
40.5742339013201
 20
78.55458969475822
 30
0.0
 11
39.43132347408846
 21
78.51221502028963
 31
0.0
  0
LINE
  5
1B0
330
1F
100
AcDbEntity
  8
レイヤー 1
 62
     7
370
    13
100
AcDbLine
 10
39.47352589378278
 20
78.59696436922678
 30
0.0
 11
39.43132347408846
 21
78.51221502028963
 31
0.0
  0
LINE
  5
1B1
330
1F
100
AcDbEntity
  8
レイヤー 1
 62
     7
370
    13
100
AcDbLine
 10
40.5742339013201
 20
78.68154146338966
 30
0.0
 11
39.47352589378278
 21
78.59696436922678
 31
0.0
  0
LINE
  5
1B2
330
1F
100
AcDbEntity
  8
レイヤー 1
 62
     7
370
    13
100
AcDbLine
 10
287.5471003217817
 20
23.56363104965178
 30
0.0
 11
288.7322131687077
 21
23.30955525761462
 31
0.0
  0
LINE
  5
1B3
330
1F
100
AcDbEntity
  8
レイヤー 1
 62
     7
370
    13
100
AcDbLine
 10
39.43132347408846
 20
78.51221502028963
 30
0.0
 11
40.70118566995157
 21
78.21593680855815
 31
0.0
  0
LINE
  5
1B4
330
1F
100
AcDbEntity
  8
レイヤー 1
 62
     7
370
    13
100
AcDbLine
 10
289.832921176245
 20
23.35192993208318
 30
0.0
 11
288.7322131687077
 21
23.30955525761462
 31
0.0
  0
LINE
  5
1B5
330
1F
100
AcDbEntity
  8
レイヤー 1
 62
     7
370
    13
100
AcDbLine
 10
40.70118566995157
 20
78.21593680855815
 30
0.0
 11
40.70118566995157
 21
78.1735621340896
 31
0.0
  0
LINE
  5
1B6
330
1F
100
AcDbEntity
  8
レイヤー 1
 62
     7
370
    13
100
AcDbLine
 10
40.65898325025725
 20
78.25831148302672
 30
0.0
 11
40.65898325025725
 21
78.21593680855815
 31
0.0
  0
LINE
  5
1B7
330
1F
100
AcDbEntity
  8
レイヤー 1
 62
     7
370
    13
100
AcDbLine
 10
29.94852589616403
 20
78.00423569098956
 30
0.0
 11
29.99090057063259
 21
78.08898503992668
 31
0.0
  0
LINE
  5
1B8
330
1F
100
AcDbEntity
  8
レイヤー 1
 62
     7
370
    13
100
AcDbLine
 10
29.94852589616403
 20
78.00423569098956
 30
0.0
 11
29.01731658650101
 21
77.96186101652097
 31
0.0
  0
LINE
  5
1B9
330
1F
100
AcDbEntity
  8
レイヤー 1
 62
     7
370
    13
100
AcDbLine
 10
29.01731658650101
 20
78.04661036545812
 30
0.0
 11
29.01731658650101
 21
77.96186101652097
 31
0.0
  0
LINE
  5
1BA
330
1F
100
AcDbEntity
  8
レイヤー 1
 62
     7
370
    13
100
AcDbLine
 10
29.99090057063259
 20
78.08898503992668
 30
0.0
 11
29.01731658650101
 21
78.04661036545812
 31
0.0
  0
LINE
  5
1BB
330
1F
100
AcDbEntity
  8
レイヤー 1
 62
     7
370
    13
100
AcDbLine
 10
29.94852589616403
 20
78.00423569098956
 30
0.0
 11
30.32955345683266
 21
77.91965859682668
 31
0.0
  0
LINE
  5
1BC
330
1F
100
AcDbEntity
  8
レイヤー 1
 62
     7
370
    13
100
AcDbLine
 10
29.99090057063259
 20
78.08898503992668
 30
0.0
 11
30.66820634303272
 21
77.96186101652097
 31
0.0
  0
LINE
  5
1BD
330
1F
100
AcDbEntity
  8
レイヤー 1
 62
     7
370
    13
100
AcDbLine
 10
28.93256723756386
 20
77.96186101652097
 30
0.0
 11
28.97494191203242
 21
77.96186101652097
 31
0.0
  0
LINE
  5
1BE
330
1F
100
AcDbEntity
  8
レイヤー 1
 62
     7
370
    13
100
AcDbLine
 10
28.97494191203242
 20
77.96186101652097
 30
0.0
 11
29.01731658650101
 21
77.96186101652097
 31
0.0
  0
LINE
  5
1BF
330
1F
100
AcDbEntity
  8
レイヤー 1
 62
     7
370
    13
100
AcDbLine
 10
28.93256723756386
 20
77.96186101652097
 30
0.0
 11
28.97494191203242
 21
78.04661036545812
 31
0.0
  0
POINT
  5
1C0
330
1F
100
AcDbEntity
  8
レイヤー 1
 62
     7
370
    13
100
AcDbPoint
 10
28.97494191203242
 20
78.04661036545812
 30
0.0
  0
LINE
  5
1C1
330
1F
100
AcDbEntity
  8
レイヤー 1
 62
     7
370
    13
100
AcDbLine
 10
28.97494191203242
 20
78.04661036545812
 30
0.0
 11
29.01731658650101
 21
78.04661036545812
 31
0.0
  0
POINT
  5
1C2
330
1F
100
AcDbEntity
  8
レイヤー 1
 62
     7
370
    13
100
AcDbPoint
 10
76.72689366875764
 20
71.61186101810847
 30
0.0
  0
LINE
  5
1C3
330
1F
100
AcDbEntity
  8
レイヤー 1
 62
     7
370
    13
100
AcDbLine
 10
76.7692683432262
 20
72.11984034740857
 30
0.0
 11
76.72689366875764
 21
71.61186101810847
 31
0.0
  0
POINT
  5
1C4
330
1F
100
AcDbEntity
  8
レイヤー 1
 62
     7
370
    13
100
AcDbPoint
 10
76.81164301769479
 20
72.11984034740857
 30
0.0
  0
LINE
  5
1C5
330
1F
100
AcDbEntity
  8
レイヤー 1
 62
     7
370
    13
100
AcDbLine
 10
76.81164301769479
 20
72.11984034740857
 30
0.0
 11
76.7692683432262
 21
72.11984034740857
 31
0.0
  0
LINE
  5
1C6
330
1F
100
AcDbEntity
  8
レイヤー 1
 62
     7
370
    13
100
AcDbLine
 10
77.86997635076352
 20
71.90831148461422
 30
0.0
 11
76.81164301769479
 21
72.11984034740857
 31
0.0
  0
POINT
  5
1C7
330
1F
100
AcDbEntity
  8
レイヤー 1
 62
     7
370
    13
100
AcDbPoint
 10
77.86997635076352
 20
71.86593681014566
 30
0.0
  0
LINE
  5
1C8
330
1F
100
AcDbEntity
  8
レイヤー 1
 62
     7
370
    13
100
AcDbLine
 10
77.86997635076352
 20
71.86593681014566
 30
0.0
 11
77.86997635076352
 21
71.90831148461422
 31
0.0
  0
LINE
  5
1C9
330
1F
100
AcDbEntity
  8
レイヤー 1
 62
     7
370
    13
100
AcDbLine
 10
76.72689366875764
 20
71.61186101810847
 30
0.0
 11
77.86997635076352
 21
71.86593681014566
 31
0.0
  0
POINT
  5
1CA
330
1F
100
AcDbEntity
  8
レイヤー 1
 62
     7
370
    13
100
AcDbPoint
 10
76.81164301769479
 20
72.20458969634572
 30
0.0
  0
LINE
  5
1CB
330
1F
100
AcDbEntity
  8
レイヤー 1
 62
     7
370
    13
100
AcDbLine
 10
76.81164301769479
 20
72.20458969634572
 30
0.0
 11
76.7692683432262
 21
72.20458969634572
 31
0.0
  0
LINE
  5
1CC
330
1F
100
AcDbEntity
  8
レイヤー 1
 62
     7
370
    13
100
AcDbLine
 10
76.7692683432262
 20
72.20458969634572
 30
0.0
 11
76.7692683432262
 21
72.16221502187713
 31
0.0
  0
POINT
  5
1CD
330
1F
100
AcDbEntity
  8
レイヤー 1
 62
     7
370
    13
100
AcDbPoint
 10
76.7692683432262
 20
72.16221502187713
 30
0.0
  0
LINE
  5
1CE
330
1F
100
AcDbEntity
  8
レイヤー 1
 62
     7
370
    13
100
AcDbLine
 10
76.7692683432262
 20
72.16221502187713
 30
0.0
 11
76.72689366875764
 21
72.20458969634572
 31
0.0
  0
LINE
  5
1CF
330
1F
100
AcDbEntity
  8
レイヤー 1
 62
     7
370
    13
100
AcDbLine
 10
76.85401769216335
 20
72.20458969634572
 30
0.0
 11
76.81164301769479
 21
72.20458969634572
 31
0.0
  0
POINT
  5
1D0
330
1F
100
AcDbEntity
  8
レイヤー 1
 62
     7
370
    13
100
AcDbPoint
 10
76.81164301769479
 20
72.16221502187713
 30
0.0
  0
LINE
  5
1D1
330
1F
100
AcDbEntity
  8
レイヤー 1
 62
     7
370
    13
100
AcDbLine
 10
76.81164301769479
 20
72.16221502187713
 30
0.0
 11
76.7692683432262
 21
72.16221502187713
 31
0.0
  0
LINE
  5
1D2
330
1F
100
AcDbEntity
  8
レイヤー 1
 62
     7
370
    13
100
AcDbLine
 10
76.81164301769479
 20
72.11984034740857
 30
0.0
 11
76.81164301769479
 21
72.16221502187713
 31
0.0
  0
LINE
  5
1D3
330
1F
100
AcDbEntity
  8
レイヤー 1
 62
     7
370
    13
100
AcDbLine
 10
76.7692683432262
 20
72.16221502187713
 30
0.0
 11
76.7692683432262
 21
72.11984034740857
 31
0.0
  0
POINT
  5
1D4
330
1F
100
AcDbEntity
  8
レイヤー 1
 62
     7
370
    13
100
AcDbPoint
 10
76.68451899428905
 20
71.65423569257706
 30
0.0
  0
LINE
  5
1D5
330
1F
100
AcDbEntity
  8
レイヤー 1
 62
     7
370
    13
100
AcDbLine
 10
76.68451899428905
 20
71.65423569257706
 30
0.0
 11
76.68451899428905
 21
71.61186101810847
 31
0.0
  0
LINE
  5
1D6
330
1F
100
AcDbEntity
  8
レイヤー 1
 62
     7
370
    13
100
AcDbLine
 10
76.68451899428905
 20
71.61186101810847
 30
0.0
 11
76.72689366875764
 21
71.61186101810847
 31
0.0
  0
LINE
  5
1D7
330
1F
100
AcDbEntity
  8
レイヤー 1
 62
     7
370
    13
100
AcDbLine
 10
76.68451899428905
 20
71.65423569257706
 30
0.0
 11
76.7692683432262
 21
72.16221502187713
 31
0.0
  0
LINE
  5
1D8
330
1F
100
AcDbEntity
  8
レイヤー 1
 62
     7
370
    13
100
AcDbLine
 10
76.7692683432262
 20
72.16221502187713
 30
0.0
 11
76.7692683432262
 21
72.11984034740857
 31
0.0
  0
LINE
  5
1D9
330
1F
100
AcDbEntity
  8
レイヤー 1
 62
     7
370
    13
100
AcDbLine
 10
76.81164301769479
 20
72.16221502187713
 30
0.0
 11
76.81164301769479
 21
72.20458969634572
 31
0.0
  0
LINE
  5
1DA
330
1F
100
AcDbEntity
  8
レイヤー 1
 62
     7
370
    13
100
AcDbLine
 10
76.7692683432262
 20
72.16221502187713
 30
0.0
 11
76.68451899428905
 21
71.65423569257706
 31
0.0
  0
LINE
  5
1DB
330
1F
100
AcDbEntity
  8
レイヤー 1
 62
     7
370
    13
100
AcDbLine
 10
76.68451899428905
 20
71.65423569257706
 30
0.0
 11
76.68451899428905
 21
71.69661036704562
 31
0.0
  0
LINE
  5
1DC
330
1F
100
AcDbEntity
  8
レイヤー 1
 62
     7
370
    13
100
AcDbLine
 10
76.68451899428905
 20
71.69661036704562
 30
0.0
 11
76.64231657459476
 21
71.69661036704562
 31
0.0
  0
LINE
  5
1DD
330
1F
100
AcDbEntity
  8
レイヤー 1
 62
     7
370
    13
100
AcDbLine
 10
76.68451899428905
 20
71.65423569257706
 30
0.0
 11
76.68451899428905
 21
71.61186101810847
 31
0.0
  0
LINE
  5
1DE
330
1F
100
AcDbEntity
  8
レイヤー 1
 62
     7
370
    13
100
AcDbLine
 10
28.93256723756386
 20
77.96186101652097
 30
0.0
 11
21.10100392571967
 21
83.04182656429612
 31
0.0
  0
LINE
  5
1DF
330
1F
100
AcDbEntity
  8
レイヤー 1
 62
     7
370
    13
100
AcDbLine
 10
21.14320634541397
 20
83.12657591323327
 30
0.0
 11
21.10100392571967
 21
83.04182656429612
 31
0.0
  0
LINE
  5
1E0
330
1F
100
AcDbEntity
  8
レイヤー 1
 62
     7
370
    13
100
AcDbLine
 10
28.97494191203242
 20
78.04661036545812
 30
0.0
 11
21.14320634541397
 21
83.12657591323327
 31
0.0
  0
LINE
  5
1E1
330
1F
100
AcDbEntity
  8
レイヤー 1
 62
     7
370
    13
100
AcDbLine
 10
76.81164301769479
 20
72.16221502187713
 30
0.0
 11
77.86997635076352
 21
71.9506861590828
 31
0.0
  0
POINT
  5
1E2
330
1F
100
AcDbEntity
  8
レイヤー 1
 62
     7
370
    13
100
AcDbPoint
 10
77.86997635076352
 20
71.90831148461422
 30
0.0
  0
LINE
  5
1E3
330
1F
100
AcDbEntity
  8
レイヤー 1
 62
     7
370
    13
100
AcDbLine
 10
77.86997635076352
 20
71.90831148461422
 30
0.0
 11
77.86997635076352
 21
71.9506861590828
 31
0.0
  0
LINE
  5
1E4
330
1F
100
AcDbEntity
  8
レイヤー 1
 62
     7
370
    13
100
AcDbLine
 10
77.86997635076352
 20
71.9506861590828
 30
0.0
 11
76.81164301769479
 21
72.20458969634572
 31
0.0
  0
POINT
  5
1E5
330
1F
100
AcDbEntity
  8
レイヤー 1
 62
     7
370
    13
100
AcDbPoint
 10
77.91235102523211
 20
71.9928885787771
 30
0.0
  0
LINE
  5
1E6
330
1F
100
AcDbEntity
  8
レイヤー 1
 62
     7
370
    13
100
AcDbLine
 10
77.91235102523211
 20
71.9928885787771
 30
0.0
 11
77.86997635076352
 21
71.9506861590828
 31
0.0
  0
LINE
  5
1E7
330
1F
100
AcDbEntity
  8
レイヤー 1
 62
     7
370
    13
100
AcDbLine
 10
77.86997635076352
 20
71.9506861590828
 30
0.0
 11
77.86997635076352
 21
71.90831148461422
 31
0.0
  0
LINE
  5
1E8
330
1F
100
AcDbEntity
  8
レイヤー 1
 62
     7
370
    13
100
AcDbLine
 10
76.68451899428905
 20
71.65423569257706
 30
0.0
 11
76.68451899428905
 21
71.61186101810847
 31
0.0
  0
LINE
  5
1E9
330
1F
100
AcDbEntity
  8
レイヤー 1
 62
     7
370
    13
100
AcDbLine
 10
76.68451899428905
 20
71.65423569257706
 30
0.0
 11
76.68451899428905
 21
71.61186101810847
 31
0.0
  0
LINE
  5
1EA
330
1F
100
AcDbEntity
  8
レイヤー 1
 62
     7
370
    13
100
AcDbLine
 10
21.43965681191972
 20
85.70901948897654
 30
0.0
 11
21.77830969811978
 21
85.62427014003941
 31
0.0
  0
LINE
  5
1EB
330
1F
100
AcDbEntity
  8
レイヤー 1
 62
     7
370
    13
100
AcDbLine
 10
21.43965681191972
 20
85.70901948897654
 30
0.0
 11
22.4556154705199
 21
85.75122190867086
 31
0.0
  0
LINE
  5
1EC
330
1F
100
AcDbEntity
  8
レイヤー 1
 62
     7
370
    13
100
AcDbLine
 10
22.4556154705199
 20
85.75122190867086
 30
0.0
 11
22.54019256468278
 21
85.75122190867086
 31
0.0
  0
LINE
  5
1ED
330
1F
100
AcDbEntity
  8
レイヤー 1
 62
     7
370
    13
100
AcDbLine
 10
22.49799014498846
 20
85.83597125760801
 30
0.0
 11
22.4556154705199
 21
85.75122190867086
 31
0.0
  0
LINE
  5
1EE
330
1F
100
AcDbEntity
  8
レイヤー 1
 62
     7
370
    13
100
AcDbLine
 10
22.49799014498846
 20
85.83597125760801
 30
0.0
 11
22.87901770565711
 21
85.75122190867086
 31
0.0
  0
LINE
  5
1EF
330
1F
100
AcDbEntity
  8
レイヤー 1
 62
     7
370
    13
100
AcDbLine
 10
21.43965681191972
 20
85.79359658313945
 30
0.0
 11
22.49799014498846
 21
85.83597125760801
 31
0.0
  0
LINE
  5
1F0
330
1F
100
AcDbEntity
  8
レイヤー 1
 62
     7
370
    13
100
AcDbLine
 10
21.43965681191972
 20
85.70901948897654
 30
0.0
 11
21.43965681191972
 21
85.79359658313945
 31
0.0
  0
LINE
  5
1F1
330
1F
100
AcDbEntity
  8
レイヤー 1
 62
     7
370
    13
100
AcDbLine
 10
21.05862925125109
 20
83.33827703080186
 30
0.0
 11
21.01625457678252
 21
83.2959023563333
 31
0.0
  0
LINE
  5
1F2
330
1F
100
AcDbEntity
  8
レイヤー 1
 62
     7
370
    13
100
AcDbLine
 10
21.01625457678252
 20
83.2959023563333
 30
0.0
 11
21.01625457678252
 21
83.25352768186474
 31
0.0
  0
LINE
  5
1F3
330
1F
100
AcDbEntity
  8
レイヤー 1
 62
     7
370
    13
100
AcDbLine
 10
21.01625457678252
 20
83.25352768186474
 30
0.0
 11
21.01625457678252
 21
83.21132526217042
 31
0.0
  0
LINE
  5
1F4
330
1F
100
AcDbEntity
  8
レイヤー 1
 62
     7
370
    13
100
AcDbLine
 10
21.01625457678252
 20
83.21132526217042
 30
0.0
 11
21.05862925125109
 21
83.12657591323327
 31
0.0
  0
LINE
  5
1F5
330
1F
100
AcDbEntity
  8
レイヤー 1
 62
     7
370
    13
100
AcDbLine
 10
21.05862925125109
 20
83.12657591323327
 30
0.0
 11
21.05862925125109
 21
83.0842012387647
 31
0.0
  0
LINE
  5
1F6
330
1F
100
AcDbEntity
  8
レイヤー 1
 62
     7
370
    13
100
AcDbLine
 10
21.05862925125109
 20
83.0842012387647
 30
0.0
 11
21.10100392571967
 21
83.04182656429612
 31
0.0
  0
LINE
  5
1F7
330
1F
100
AcDbEntity
  8
レイヤー 1
 62
     7
370
    13
100
AcDbLine
 10
21.05862925125109
 20
83.33827703080186
 30
0.0
 11
21.10100392571967
 21
83.33827703080186
 31
0.0
  0
LINE
  5
1F8
330
1F
100
AcDbEntity
  8
レイヤー 1
 62
     7
370
    13
100
AcDbLine
 10
21.10100392571967
 20
83.33827703080186
 30
0.0
 11
21.10100392571967
 21
83.2959023563333
 31
0.0
  0
LINE
  5
1F9
330
1F
100
AcDbEntity
  8
レイヤー 1
 62
     7
370
    13
100
AcDbLine
 10
21.10100392571967
 20
83.2959023563333
 30
0.0
 11
21.10100392571967
 21
83.25352768186474
 31
0.0
  0
LINE
  5
1FA
330
1F
100
AcDbEntity
  8
レイヤー 1
 62
     7
370
    13
100
AcDbLine
 10
21.10100392571967
 20
83.25352768186474
 30
0.0
 11
21.10100392571967
 21
83.21132526217042
 31
0.0
  0
LINE
  5
1FB
330
1F
100
AcDbEntity
  8
レイヤー 1
 62
     7
370
    13
100
AcDbLine
 10
21.10100392571967
 20
83.21132526217042
 30
0.0
 11
21.10100392571967
 21
83.16895058770186
 31
0.0
  0
LINE
  5
1FC
330
1F
100
AcDbEntity
  8
レイヤー 1
 62
     7
370
    13
100
AcDbLine
 10
21.10100392571967
 20
83.16895058770186
 30
0.0
 11
21.14320634541397
 21
83.12657591323327
 31
0.0
  0
LINE
  5
1FD
330
1F
100
AcDbEntity
  8
レイヤー 1
 62
     7
370
    13
100
AcDbLine
 10
21.05862925125109
 20
83.33827703080186
 30
0.0
 11
21.39728213745114
 21
85.70901948897654
 31
0.0
  0
LINE
  5
1FE
330
1F
100
AcDbEntity
  8
レイヤー 1
 62
     7
370
    13
100
AcDbLine
 10
21.43965681191972
 20
85.70901948897654
 30
0.0
 11
21.39728213745114
 21
85.70901948897654
 31
0.0
  0
LINE
  5
1FF
330
1F
100
AcDbEntity
  8
レイヤー 1
 62
     7
370
    13
100
AcDbLine
 10
21.10100392571967
 20
83.33827703080186
 30
0.0
 11
21.43965681191972
 21
85.70901948897654
 31
0.0
  0
LINE
  5
200
330
1F
100
AcDbEntity
  8
レイヤー 1
 62
     7
370
    13
100
AcDbLine
 10
21.43965681191972
 20
85.79359658313945
 30
0.0
 11
21.39728213745114
 21
85.79359658313945
 31
0.0
  0
LINE
  5
201
330
1F
100
AcDbEntity
  8
レイヤー 1
 62
     7
370
    13
100
AcDbLine
 10
21.39728213745114
 20
85.79359658313945
 30
0.0
 11
21.39728213745114
 21
85.75122190867086
 31
0.0
  0
LINE
  5
202
330
1F
100
AcDbEntity
  8
レイヤー 1
 62
     7
370
    13
100
AcDbLine
 10
21.39728213745114
 20
85.75122190867086
 30
0.0
 11
21.39728213745114
 21
85.70901948897654
 31
0.0
  0
POINT
  5
203
330
1F
100
AcDbEntity
  8
レイヤー 1
 62
     7
370
    13
100
AcDbPoint
 10
256.4320314276508
 20
32.36895060040183
 30
0.0
  0
LINE
  5
204
330
1F
100
AcDbEntity
  8
レイヤー 1
 62
     7
370
    13
100
AcDbLine
 10
256.4320314276508
 20
32.36895060040183
 30
0.0
 11
256.3896567531822
 21
32.36895060040183
 31
0.0
  0
LINE
  5
205
330
1F
100
AcDbEntity
  8
レイヤー 1
 62
     7
370
    13
100
AcDbLine
 10
256.3896567531822
 20
32.36895060040183
 30
0.0
 11
256.3896567531822
 21
32.32657592593327
 31
0.0
  0
LINE
  5
206
330
1F
100
AcDbEntity
  8
レイヤー 1
 62
     7
370
    13
100
AcDbLine
 10
257.4903647607196
 20
32.11487480836468
 30
0.0
 11
256.4320314276508
 21
32.36895060040183
 31
0.0
  0
POINT
  5
207
330
1F
100
AcDbEntity
  8
レイヤー 1
 62
     7
370
    13
100
AcDbPoint
 10
257.4903647607196
 20
32.11487480836468
 30
0.0
  0
LINE
  5
208
330
1F
100
AcDbEntity
  8
レイヤー 1
 62
     7
370
    13
100
AcDbLine
 10
256.3472820787136
 20
31.81859659663317
 30
0.0
 11
257.4903647607196
 21
32.11487480836468
 31
0.0
  0
POINT
  5
209
330
1F
100
AcDbEntity
  8
レイヤー 1
 62
     7
370
    13
100
AcDbPoint
 10
256.3049074042451
 20
31.86097127110176
 30
0.0
  0
LINE
  5
20A
330
1F
100
AcDbEntity
  8
レイヤー 1
 62
     7
370
    13
100
AcDbLine
 10
256.3049074042451
 20
31.86097127110176
 30
0.0
 11
256.3472820787136
 21
31.86097127110176
 31
0.0
  0
LINE
  5
20B
330
1F
100
AcDbEntity
  8
レイヤー 1
 62
     7
370
    13
100
AcDbLine
 10
256.3472820787136
 20
31.86097127110176
 30
0.0
 11
256.3472820787136
 21
31.81859659663317
 31
0.0
  0
LINE
  5
20C
330
1F
100
AcDbEntity
  8
レイヤー 1
 62
     7
370
    13
100
AcDbLine
 10
256.3896567531822
 20
32.32657592593327
 30
0.0
 11
256.3049074042451
 21
31.86097127110176
 31
0.0
  0
POINT
  5
20D
330
1F
100
AcDbEntity
  8
レイヤー 1
 62
     7
370
    13
100
AcDbPoint
 10
256.4320314276508
 20
32.41132527487042
 30
0.0
  0
LINE
  5
20E
330
1F
100
AcDbEntity
  8
レイヤー 1
 62
     7
370
    13
100
AcDbLine
 10
256.4320314276508
 20
32.41132527487042
 30
0.0
 11
256.3896567531822
 21
32.41132527487042
 31
0.0
  0
LINE
  5
20F
330
1F
100
AcDbEntity
  8
レイヤー 1
 62
     7
370
    13
100
AcDbLine
 10
256.3896567531822
 20
32.41132527487042
 30
0.0
 11
256.3472820787136
 21
32.41132527487042
 31
0.0
  0
POINT
  5
210
330
1F
100
AcDbEntity
  8
レイヤー 1
 62
     7
370
    13
100
AcDbPoint
 10
256.3472820787136
 20
32.41132527487042
 30
0.0
  0
LINE
  5
211
330
1F
100
AcDbEntity
  8
レイヤー 1
 62
     7
370
    13
100
AcDbLine
 10
256.4744061021194
 20
32.45352769456471
 30
0.0
 11
256.4320314276508
 21
32.41132527487042
 31
0.0
  0
POINT
  5
212
330
1F
100
AcDbEntity
  8
レイヤー 1
 62
     7
370
    13
100
AcDbPoint
 10
256.3896567531822
 20
32.36895060040183
 30
0.0
  0
LINE
  5
213
330
1F
100
AcDbEntity
  8
レイヤー 1
 62
     7
370
    13
100
AcDbLine
 10
256.3896567531822
 20
32.36895060040183
 30
0.0
 11
256.3896567531822
 21
32.32657592593327
 31
0.0
  0
POINT
  5
214
330
1F
100
AcDbEntity
  8
レイヤー 1
 62
     7
370
    13
100
AcDbPoint
 10
256.4320314276508
 20
32.36895060040183
 30
0.0
  0
LINE
  5
215
330
1F
100
AcDbEntity
  8
レイヤー 1
 62
     7
370
    13
100
AcDbLine
 10
256.4320314276508
 20
32.36895060040183
 30
0.0
 11
256.3896567531822
 21
32.36895060040183
 31
0.0
  0
POINT
  5
216
330
1F
100
AcDbEntity
  8
レイヤー 1
 62
     7
370
    13
100
AcDbPoint
 10
256.4320314276508
 20
32.36895060040183
 30
0.0
  0
POINT
  5
217
330
1F
100
AcDbEntity
  8
レイヤー 1
 62
     7
370
    13
100
AcDbPoint
 10
256.3049074042451
 20
31.86097127110176
 30
0.0
  0
LINE
  5
218
330
1F
100
AcDbEntity
  8
レイヤー 1
 62
     7
370
    13
100
AcDbLine
 10
256.3049074042451
 20
31.86097127110176
 30
0.0
 11
256.3896567531822
 21
32.36895060040183
 31
0.0
  0
LINE
  5
219
330
1F
100
AcDbEntity
  8
レイヤー 1
 62
     7
370
    13
100
AcDbLine
 10
256.3896567531822
 20
32.36895060040183
 30
0.0
 11
256.3472820787136
 21
32.41132527487042
 31
0.0
  0
LINE
  5
21A
330
1F
100
AcDbEntity
  8
レイヤー 1
 62
     7
370
    13
100
AcDbLine
 10
256.4320314276508
 20
32.36895060040183
 30
0.0
 11
256.4320314276508
 21
32.41132527487042
 31
0.0
  0
LINE
  5
21B
330
1F
100
AcDbEntity
  8
レイヤー 1
 62
     7
370
    13
100
AcDbLine
 10
256.3472820787136
 20
32.41132527487042
 30
0.0
 11
256.3049074042451
 21
31.90317369079605
 31
0.0
  0
POINT
  5
21C
330
1F
100
AcDbEntity
  8
レイヤー 1
 62
     7
370
    13
100
AcDbPoint
 10
256.3049074042451
 20
31.90317369079605
 30
0.0
  0
LINE
  5
21D
330
1F
100
AcDbEntity
  8
レイヤー 1
 62
     7
370
    13
100
AcDbLine
 10
256.3049074042451
 20
31.90317369079605
 30
0.0
 11
256.2625327297765
 21
31.90317369079605
 31
0.0
  0
LINE
  5
21E
330
1F
100
AcDbEntity
  8
レイヤー 1
 62
     7
370
    13
100
AcDbLine
 10
256.3049074042451
 20
31.86097127110176
 30
0.0
 11
256.3049074042451
 21
31.90317369079605
 31
0.0
  0
LINE
  5
21F
330
1F
100
AcDbEntity
  8
レイヤー 1
 62
     7
370
    13
100
AcDbLine
 10
256.4320314276508
 20
32.36895060040183
 30
0.0
 11
257.4903647607196
 21
32.15724948283324
 31
0.0
  0
POINT
  5
220
330
1F
100
AcDbEntity
  8
レイヤー 1
 62
     7
370
    13
100
AcDbPoint
 10
257.4903647607196
 20
32.11487480836468
 30
0.0
  0
LINE
  5
221
330
1F
100
AcDbEntity
  8
レイヤー 1
 62
     7
370
    13
100
AcDbLine
 10
257.4903647607196
 20
32.11487480836468
 30
0.0
 11
257.4903647607196
 21
32.15724948283324
 31
0.0
  0
LINE
  5
222
330
1F
100
AcDbEntity
  8
レイヤー 1
 62
     7
370
    13
100
AcDbLine
 10
257.4903647607196
 20
32.15724948283324
 30
0.0
 11
256.4320314276508
 21
32.41132527487042
 31
0.0
  0
LINE
  5
223
330
1F
100
AcDbEntity
  8
レイヤー 1
 62
     7
370
    13
100
AcDbLine
 10
257.5327394351881
 20
32.19962415730183
 30
0.0
 11
257.4903647607196
 21
32.19962415730183
 31
0.0
  0
LINE
  5
224
330
1F
100
AcDbEntity
  8
レイヤー 1
 62
     7
370
    13
100
AcDbLine
 10
257.4903647607196
 20
32.19962415730183
 30
0.0
 11
257.4903647607196
 21
32.15724948283324
 31
0.0
  0
LINE
  5
225
330
1F
100
AcDbEntity
  8
レイヤー 1
 62
     7
370
    13
100
AcDbLine
 10
257.4903647607196
 20
32.15724948283324
 30
0.0
 11
257.4903647607196
 21
32.11487480836468
 31
0.0
  0
LINE
  5
226
330
1F
100
AcDbEntity
  8
レイヤー 1
 62
     7
370
    13
100
AcDbLine
 10
256.3049074042451
 20
31.86097127110176
 30
0.0
 11
256.3049074042451
 21
31.81859659663317
 31
0.0
  0
LINE
  5
227
330
1F
100
AcDbEntity
  8
レイヤー 1
 62
     7
370
    13
100
AcDbLine
 10
256.3049074042451
 20
31.90317369079605
 30
0.0
 11
256.3049074042451
 21
31.86097127110176
 31
0.0
  0
LINE
  5
228
330
1F
100
AcDbEntity
  8
レイヤー 1
 62
     7
370
    13
100
AcDbLine
 10
29.90632347646971
 20
76.7342012403522
 30
0.0
 11
29.90632347646971
 21
76.64962414618932
 31
0.0
  0
LINE
  5
229
330
1F
100
AcDbEntity
  8
レイヤー 1
 62
     7
370
    13
100
AcDbLine
 10
29.90632347646971
 20
76.64962414618932
 30
0.0
 11
29.90632347646971
 21
76.56487479725217
 31
0.0
  0
LINE
  5
22A
330
1F
100
AcDbEntity
  8
レイヤー 1
 62
     7
370
    13
100
AcDbLine
 10
29.90632347646971
 20
76.56487479725217
 30
0.0
 11
29.90632347646971
 21
76.52267237755785
 31
0.0
  0
LINE
  5
22B
330
1F
100
AcDbEntity
  8
レイヤー 1
 62
     7
370
    13
100
AcDbLine
 10
29.90632347646971
 20
76.52267237755785
 30
0.0
 11
29.94852589616403
 21
76.4379230286207
 31
0.0
  0
LINE
  5
22C
330
1F
100
AcDbEntity
  8
レイヤー 1
 62
     7
370
    13
100
AcDbLine
 10
29.94852589616403
 20
76.4379230286207
 30
0.0
 11
29.94852589616403
 21
76.39554835415214
 31
0.0
  0
LINE
  5
22D
330
1F
100
AcDbEntity
  8
レイヤー 1
 62
     7
370
    13
100
AcDbLine
 10
30.03327524510118
 20
77.49625636168946
 30
0.0
 11
29.90632347646971
 21
76.7342012403522
 31
0.0
  0
LINE
  5
22E
330
1F
100
AcDbEntity
  8
レイヤー 1
 62
     7
370
    13
100
AcDbLine
 10
30.28735103713836
 20
77.87728392235809
 30
0.0
 11
30.20260168820121
 21
77.83490924788953
 31
0.0
  0
LINE
  5
22F
330
1F
100
AcDbEntity
  8
レイヤー 1
 62
     7
370
    13
100
AcDbLine
 10
30.20260168820121
 20
77.83490924788953
 30
0.0
 11
30.16022701373262
 21
77.79253457342094
 31
0.0
  0
LINE
  5
230
330
1F
100
AcDbEntity
  8
レイヤー 1
 62
     7
370
    13
100
AcDbLine
 10
30.16022701373262
 20
77.79253457342094
 30
0.0
 11
30.11785233926406
 21
77.75015989895238
 31
0.0
  0
LINE
  5
231
330
1F
100
AcDbEntity
  8
レイヤー 1
 62
     7
370
    13
100
AcDbLine
 10
30.11785233926406
 20
77.75015989895238
 30
0.0
 11
30.07564991956974
 21
77.70795747925806
 31
0.0
  0
LINE
  5
232
330
1F
100
AcDbEntity
  8
レイヤー 1
 62
     7
370
    13
100
AcDbLine
 10
30.07564991956974
 20
77.70795747925806
 30
0.0
 11
30.07564991956974
 21
77.6655828047895
 31
0.0
  0
LINE
  5
233
330
1F
100
AcDbEntity
  8
レイヤー 1
 62
     7
370
    13
100
AcDbLine
 10
30.07564991956974
 20
77.6655828047895
 30
0.0
 11
30.03327524510118
 21
77.62320813032093
 31
0.0
  0
LINE
  5
234
330
1F
100
AcDbEntity
  8
レイヤー 1
 62
     7
370
    13
100
AcDbLine
 10
30.03327524510118
 20
77.62320813032093
 30
0.0
 11
30.03327524510118
 21
77.53863103615802
 31
0.0
  0
LINE
  5
235
330
1F
100
AcDbEntity
  8
レイヤー 1
 62
     7
370
    13
100
AcDbLine
 10
30.03327524510118
 20
77.53863103615802
 30
0.0
 11
30.03327524510118
 21
77.49625636168946
 31
0.0
  0
LINE
  5
236
330
1F
100
AcDbEntity
  8
レイヤー 1
 62
     7
370
    13
100
AcDbLine
 10
39.64285233688281
 20
78.38526325165819
 30
0.0
 11
30.28735103713836
 21
77.87728392235809
 31
0.0
  0
LINE
  5
237
330
1F
100
AcDbEntity
  8
レイヤー 1
 62
     7
370
    13
100
AcDbLine
 10
39.81235103475711
 20
78.00423569098956
 30
0.0
 11
39.81235103475711
 21
78.08898503992668
 31
0.0
  0
LINE
  5
238
330
1F
100
AcDbEntity
  8
レイヤー 1
 62
     7
370
    13
100
AcDbLine
 10
39.81235103475711
 20
78.08898503992668
 30
0.0
 11
39.81235103475711
 21
78.131187459621
 31
0.0
  0
LINE
  5
239
330
1F
100
AcDbEntity
  8
レイヤー 1
 62
     7
370
    13
100
AcDbLine
 10
39.81235103475711
 20
78.131187459621
 30
0.0
 11
39.81235103475711
 21
78.21593680855815
 31
0.0
  0
LINE
  5
23A
330
1F
100
AcDbEntity
  8
レイヤー 1
 62
     7
370
    13
100
AcDbLine
 10
39.81235103475711
 20
78.21593680855815
 30
0.0
 11
39.76997636028852
 21
78.25831148302672
 31
0.0
  0
LINE
  5
23B
330
1F
100
AcDbEntity
  8
レイヤー 1
 62
     7
370
    13
100
AcDbLine
 10
39.76997636028852
 20
78.25831148302672
 30
0.0
 11
39.76997636028852
 21
78.3006861574953
 31
0.0
  0
LINE
  5
23C
330
1F
100
AcDbEntity
  8
レイヤー 1
 62
     7
370
    13
100
AcDbLine
 10
39.76997636028852
 20
78.3006861574953
 30
0.0
 11
39.72760168581996
 21
78.3428885771896
 31
0.0
  0
LINE
  5
23D
330
1F
100
AcDbEntity
  8
レイヤー 1
 62
     7
370
    13
100
AcDbLine
 10
39.72760168581996
 20
78.3428885771896
 30
0.0
 11
39.68522701135137
 21
78.3428885771896
 31
0.0
  0
LINE
  5
23E
330
1F
100
AcDbEntity
  8
レイヤー 1
 62
     7
370
    13
100
AcDbLine
 10
39.68522701135137
 20
78.3428885771896
 30
0.0
 11
39.64285233688281
 21
78.38526325165819
 31
0.0
  0
LINE
  5
23F
330
1F
100
AcDbEntity
  8
レイヤー 1
 62
     7
370
    13
100
AcDbLine
 10
39.68522701135137
 20
77.24235282442655
 30
0.0
 11
39.81235103475711
 21
78.00423569098956
 31
0.0
  0
LINE
  5
240
330
1F
100
AcDbEntity
  8
レイヤー 1
 62
     7
370
    13
100
AcDbLine
 10
39.55827524271993
 20
76.90352768345224
 30
0.0
 11
39.60064991718849
 21
76.9459023579208
 31
0.0
  0
LINE
  5
241
330
1F
100
AcDbEntity
  8
レイヤー 1
 62
     7
370
    13
100
AcDbLine
 10
39.60064991718849
 20
76.9459023579208
 30
0.0
 11
39.64285233688281
 21
77.03065170685795
 31
0.0
  0
LINE
  5
242
330
1F
100
AcDbEntity
  8
レイヤー 1
 62
     7
370
    13
100
AcDbLine
 10
39.64285233688281
 20
77.03065170685795
 30
0.0
 11
39.64285233688281
 21
77.07285412655224
 31
0.0
  0
LINE
  5
243
330
1F
100
AcDbEntity
  8
レイヤー 1
 62
     7
370
    13
100
AcDbLine
 10
39.64285233688281
 20
77.07285412655224
 30
0.0
 11
39.68522701135137
 21
77.1576034754894
 31
0.0
  0
LINE
  5
244
330
1F
100
AcDbEntity
  8
レイヤー 1
 62
     7
370
    13
100
AcDbLine
 10
39.68522701135137
 20
77.1576034754894
 30
0.0
 11
39.68522701135137
 21
77.24235282442655
 31
0.0
  0
LINE
  5
245
330
1F
100
AcDbEntity
  8
レイヤー 1
 62
     7
370
    13
100
AcDbLine
 10
29.94852589616403
 20
76.39554835415214
 30
0.0
 11
30.11785233926406
 21
76.22622191105211
 31
0.0
  0
LINE
  5
246
330
1F
100
AcDbEntity
  8
レイヤー 1
 62
     7
370
    13
100
AcDbLine
 10
30.11785233926406
 20
76.22622191105211
 30
0.0
 11
30.28735103713836
 21
76.05689546795207
 31
0.0
  0
LINE
  5
247
330
1F
100
AcDbEntity
  8
レイヤー 1
 62
     7
370
    13
100
AcDbLine
 10
30.28735103713836
 20
76.05689546795207
 30
0.0
 11
30.41430280576981
 21
75.88756902485204
 31
0.0
  0
LINE
  5
248
330
1F
100
AcDbEntity
  8
レイヤー 1
 62
     7
370
    13
100
AcDbLine
 10
30.41430280576981
 20
75.88756902485204
 30
0.0
 11
30.58362924886984
 21
75.71824258175201
 31
0.0
  0
LINE
  5
249
330
1F
100
AcDbEntity
  8
レイヤー 1
 62
     7
370
    13
100
AcDbLine
 10
30.58362924886984
 20
75.71824258175201
 30
0.0
 11
30.79533036643844
 21
75.59129081312057
 31
0.0
  0
LINE
  5
24A
330
1F
100
AcDbEntity
  8
レイヤー 1
 62
     7
370
    13
100
AcDbLine
 10
30.79533036643844
 20
75.59129081312057
 30
0.0
 11
30.96465680953847
 21
75.46433904448912
 31
0.0
  0
LINE
  5
24B
330
1F
100
AcDbEntity
  8
レイヤー 1
 62
     7
370
    13
100
AcDbLine
 10
30.96465680953847
 20
75.46433904448912
 30
0.0
 11
31.1339832526385
 21
75.29484034661482
 31
0.0
  0
LINE
  5
24C
330
1F
100
AcDbEntity
  8
レイヤー 1
 62
     7
370
    13
100
AcDbLine
 10
31.1339832526385
 20
75.29484034661482
 30
0.0
 11
31.3456843702071
 21
75.16788857798335
 31
0.0
  0
LINE
  5
24D
330
1F
100
AcDbEntity
  8
レイヤー 1
 62
     7
370
    13
100
AcDbLine
 10
31.3456843702071
 20
75.16788857798335
 30
0.0
 11
31.51501081330713
 21
75.0409368093519
 31
0.0
  0
LINE
  5
24E
330
1F
100
AcDbEntity
  8
レイヤー 1
 62
     7
370
    13
100
AcDbLine
 10
31.51501081330713
 20
75.0409368093519
 30
0.0
 11
31.72653967610148
 21
74.95618746041475
 31
0.0
  0
LINE
  5
24F
330
1F
100
AcDbEntity
  8
レイヤー 1
 62
     7
370
    13
100
AcDbLine
 10
31.72653967610148
 20
74.95618746041475
 30
0.0
 11
31.93824079367008
 21
74.82923569178331
 31
0.0
  0
LINE
  5
250
330
1F
100
AcDbEntity
  8
レイヤー 1
 62
     7
370
    13
100
AcDbLine
 10
31.93824079367008
 20
74.82923569178331
 30
0.0
 11
32.14994191123867
 21
74.74465859762043
 31
0.0
  0
LINE
  5
251
330
1F
100
AcDbEntity
  8
レイヤー 1
 62
     7
370
    13
100
AcDbLine
 10
32.74267058947592
 20
74.5329574800518
 30
0.0
 11
32.78487300917021
 21
74.49058280558324
 31
0.0
  0
LINE
  5
252
330
1F
100
AcDbEntity
  8
レイヤー 1
 62
     7
370
    13
100
AcDbLine
 10
32.78487300917021
 20
74.49058280558324
 30
0.0
 11
33.41997636187602
 21
74.36363103695177
 31
0.0
  0
LINE
  5
253
330
1F
100
AcDbEntity
  8
レイヤー 1
 62
     7
370
    13
100
AcDbLine
 10
33.41997636187602
 20
74.36363103695177
 30
0.0
 11
34.09728213427616
 21
74.32125636248321
 31
0.0
  0
LINE
  5
254
330
1F
100
AcDbEntity
  8
レイヤー 1
 62
     7
370
    13
100
AcDbLine
 10
34.09728213427616
 20
74.32125636248321
 30
0.0
 11
34.77458790667626
 21
74.36363103695177
 31
0.0
  0
LINE
  5
255
330
1F
100
AcDbEntity
  8
レイヤー 1
 62
     7
370
    13
100
AcDbLine
 10
34.77458790667626
 20
74.36363103695177
 30
0.0
 11
35.45189367907639
 21
74.49058280558324
 31
0.0
  0
LINE
  5
256
330
1F
100
AcDbEntity
  8
レイヤー 1
 62
     7
370
    13
100
AcDbLine
 10
35.45189367907639
 20
74.49058280558324
 30
0.0
 11
36.1291994514765
 21
74.65990924868328
 31
0.0
  0
LINE
  5
257
330
1F
100
AcDbEntity
  8
レイヤー 1
 62
     7
370
    13
100
AcDbLine
 10
36.1291994514765
 20
74.65990924868328
 30
0.0
 11
36.80667747865087
 21
74.95618746041475
 31
0.0
  0
LINE
  5
258
330
1F
100
AcDbEntity
  8
レイヤー 1
 62
     7
370
    13
100
AcDbLine
 10
36.80667747865087
 20
74.95618746041475
 30
0.0
 11
37.483983251051
 21
75.33721502108338
 31
0.0
  0
LINE
  5
259
330
1F
100
AcDbEntity
  8
レイヤー 1
 62
     7
370
    13
100
AcDbLine
 10
37.483983251051
 20
75.33721502108338
 30
0.0
 11
38.20366369791969
 21
75.80299193068916
 31
0.0
  0
LINE
  5
25A
330
1F
100
AcDbEntity
  8
レイヤー 1
 62
     7
370
    13
100
AcDbLine
 10
38.20366369791969
 20
75.80299193068916
 30
0.0
 11
38.8809694703198
 21
76.31097125998926
 31
0.0
  0
LINE
  5
25B
330
1F
100
AcDbEntity
  8
レイヤー 1
 62
     7
370
    13
100
AcDbLine
 10
38.8809694703198
 20
76.31097125998926
 30
0.0
 11
39.55827524271993
 21
76.90352768345224
 31
0.0
  0
LINE
  5
25C
330
1F
100
AcDbEntity
  8
レイヤー 1
 62
     7
370
    13
100
AcDbLine
 10
39.55827524271993
 20
76.90352768345224
 30
0.0
 11
39.55827524271993
 21
76.86132526375792
 31
0.0
  0
LINE
  5
25D
330
1F
100
AcDbEntity
  8
レイヤー 1
 62
     7
370
    13
100
AcDbLine
 10
39.55827524271993
 20
76.86132526375792
 30
0.0
 11
39.60064991718849
 21
76.86132526375792
 31
0.0
  0
LINE
  5
25E
330
1F
100
AcDbEntity
  8
レイヤー 1
 62
     7
370
    13
100
AcDbLine
 10
39.60064991718849
 20
76.86132526375792
 30
0.0
 11
39.60064991718849
 21
76.81895058928936
 31
0.0
  0
LINE
  5
25F
330
1F
100
AcDbEntity
  8
レイヤー 1
 62
     7
370
    13
100
AcDbLine
 10
39.60064991718849
 20
76.81895058928936
 30
0.0
 11
38.92334414478839
 21
76.22622191105211
 31
0.0
  0
LINE
  5
260
330
1F
100
AcDbEntity
  8
レイヤー 1
 62
     7
370
    13
100
AcDbLine
 10
38.92334414478839
 20
76.22622191105211
 30
0.0
 11
38.24586611761401
 21
75.71824258175201
 31
0.0
  0
LINE
  5
261
330
1F
100
AcDbEntity
  8
レイヤー 1
 62
     7
370
    13
100
AcDbLine
 10
38.24586611761401
 20
75.71824258175201
 30
0.0
 11
37.56856034521388
 21
75.2526379269205
 31
0.0
  0
LINE
  5
262
330
1F
100
AcDbEntity
  8
レイヤー 1
 62
     7
370
    13
100
AcDbLine
 10
37.56856034521388
 20
75.2526379269205
 30
0.0
 11
36.84887989834519
 21
74.87161036625187
 31
0.0
  0
LINE
  5
263
330
1F
100
AcDbEntity
  8
レイヤー 1
 62
     7
370
    13
100
AcDbLine
 10
36.84887989834519
 20
74.87161036625187
 30
0.0
 11
36.17157412594509
 21
74.61753457421469
 31
0.0
  0
LINE
  5
264
330
1F
100
AcDbEntity
  8
レイヤー 1
 62
     7
370
    13
100
AcDbLine
 10
36.17157412594509
 20
74.61753457421469
 30
0.0
 11
35.49426835354495
 21
74.40600571142036
 31
0.0
  0
LINE
  5
265
330
1F
100
AcDbEntity
  8
レイヤー 1
 62
     7
370
    13
100
AcDbLine
 10
35.49426835354495
 20
74.40600571142036
 30
0.0
 11
34.81696258114485
 21
74.27888168801465
 31
0.0
  0
LINE
  5
266
330
1F
100
AcDbEntity
  8
レイヤー 1
 62
     7
370
    13
100
AcDbLine
 10
34.81696258114485
 20
74.27888168801465
 30
0.0
 11
34.13965680874472
 21
74.23650701354606
 31
0.0
  0
LINE
  5
267
330
1F
100
AcDbEntity
  8
レイヤー 1
 62
     7
370
    13
100
AcDbLine
 10
34.13965680874472
 20
74.23650701354606
 30
0.0
 11
33.46235103634461
 21
74.27888168801465
 31
0.0
  0
LINE
  5
268
330
1F
100
AcDbEntity
  8
レイヤー 1
 62
     7
370
    13
100
AcDbLine
 10
33.46235103634461
 20
74.27888168801465
 30
0.0
 11
32.8272476836388
 21
74.40600571142036
 31
0.0
  0
LINE
  5
269
330
1F
100
AcDbEntity
  8
レイヤー 1
 62
     7
370
    13
100
AcDbLine
 10
32.8272476836388
 20
74.40600571142036
 30
0.0
 11
32.23451900540155
 21
74.65990924868328
 31
0.0
  0
LINE
  5
26A
330
1F
100
AcDbEntity
  8
レイヤー 1
 62
     7
370
    13
100
AcDbLine
 10
32.23451900540155
 20
74.65990924868328
 30
0.0
 11
31.59958790747001
 21
74.95618746041475
 31
0.0
  0
LINE
  5
26B
330
1F
100
AcDbEntity
  8
レイヤー 1
 62
     7
370
    13
100
AcDbLine
 10
31.59958790747001
 20
74.95618746041475
 30
0.0
 11
31.04923390370135
 21
75.33721502108338
 31
0.0
  0
LINE
  5
26C
330
1F
100
AcDbEntity
  8
レイヤー 1
 62
     7
370
    13
100
AcDbLine
 10
31.04923390370135
 20
75.33721502108338
 30
0.0
 11
30.49887989993269
 21
75.80299193068916
 31
0.0
  0
LINE
  5
26D
330
1F
100
AcDbEntity
  8
レイヤー 1
 62
     7
370
    13
100
AcDbLine
 10
30.49887989993269
 20
75.80299193068916
 30
0.0
 11
29.99090057063259
 21
76.31097125998926
 31
0.0
  0
POINT
  5
26E
330
1F
100
AcDbEntity
  8
レイヤー 1
 62
     7
370
    13
100
AcDbPoint
 10
29.94852589616403
 20
76.39554835415214
 30
0.0
  0
LINE
  5
26F
330
1F
100
AcDbEntity
  8
レイヤー 1
 62
     7
370
    13
100
AcDbLine
 10
29.94852589616403
 20
76.39554835415214
 30
0.0
 11
29.94852589616403
 21
76.35317367968358
 31
0.0
  0
LINE
  5
270
330
1F
100
AcDbEntity
  8
レイヤー 1
 62
     7
370
    13
100
AcDbLine
 10
29.94852589616403
 20
76.35317367968358
 30
0.0
 11
29.99090057063259
 21
76.35317367968358
 31
0.0
  0
LINE
  5
271
330
1F
100
AcDbEntity
  8
レイヤー 1
 62
     7
370
    13
100
AcDbLine
 10
29.99090057063259
 20
76.35317367968358
 30
0.0
 11
29.99090057063259
 21
76.31097125998926
 31
0.0
  0
LINE
  5
272
330
1F
100
AcDbEntity
  8
レイヤー 1
 62
     7
370
    13
100
AcDbLine
 10
41.16696257955735
 20
76.48029770308929
 30
0.0
 11
40.48965680715722
 21
75.84519435038348
 31
0.0
  0
LINE
  5
273
330
1F
100
AcDbEntity
  8
レイヤー 1
 62
     7
370
    13
100
AcDbLine
 10
40.48965680715722
 20
75.84519435038348
 30
0.0
 11
39.81235103475711
 21
75.33721502108338
 31
0.0
  0
LINE
  5
274
330
1F
100
AcDbEntity
  8
レイヤー 1
 62
     7
370
    13
100
AcDbLine
 10
39.81235103475711
 20
75.33721502108338
 30
0.0
 11
39.09267058788842
 21
74.87161036625187
 31
0.0
  0
LINE
  5
275
330
1F
100
AcDbEntity
  8
レイヤー 1
 62
     7
370
    13
100
AcDbLine
 10
39.09267058788842
 20
74.87161036625187
 30
0.0
 11
38.41519256071402
 21
74.5329574800518
 31
0.0
  0
LINE
  5
276
330
1F
100
AcDbEntity
  8
レイヤー 1
 62
     7
370
    13
100
AcDbLine
 10
38.41519256071402
 20
74.5329574800518
 30
0.0
 11
37.6956843686196
 21
74.23650701354606
 31
0.0
  0
LINE
  5
277
330
1F
100
AcDbEntity
  8
レイヤー 1
 62
     7
370
    13
100
AcDbLine
 10
37.6956843686196
 20
74.23650701354606
 30
0.0
 11
37.01820634144522
 21
74.02497815075174
 31
0.0
  0
LINE
  5
278
330
1F
100
AcDbEntity
  8
レイヤー 1
 62
     7
370
    13
100
AcDbLine
 10
37.01820634144522
 20
74.02497815075174
 30
0.0
 11
36.34090056904509
 21
73.897854127346
 31
0.0
  0
LINE
  5
279
330
1F
100
AcDbEntity
  8
レイヤー 1
 62
     7
370
    13
100
AcDbLine
 10
36.34090056904509
 20
73.897854127346
 30
0.0
 11
35.66359479664499
 21
73.8556517076517
 31
0.0
  0
LINE
  5
27A
330
1F
100
AcDbEntity
  8
レイヤー 1
 62
     7
370
    13
100
AcDbLine
 10
35.66359479664499
 20
73.8556517076517
 30
0.0
 11
35.02866369871344
 21
73.897854127346
 31
0.0
  0
LINE
  5
27B
330
1F
100
AcDbEntity
  8
レイヤー 1
 62
     7
370
    13
100
AcDbLine
 10
35.02866369871344
 20
73.897854127346
 30
0.0
 11
34.52068436941335
 21
74.02497815075174
 31
0.0
  0
LINE
  5
27C
330
1F
100
AcDbEntity
  8
レイヤー 1
 62
     7
370
    13
100
AcDbLine
 10
39.60064991718849
 20
76.81895058928936
 30
0.0
 11
41.16696257955735
 21
76.48029770308929
 31
0.0
  0
POINT
  5
27D
330
1F
100
AcDbEntity
  8
レイヤー 1
 62
     7
370
    13
100
AcDbPoint
 10
39.76997636028852
 20
77.24235282442655
 30
0.0
  0
LINE
  5
27E
330
1F
100
AcDbEntity
  8
レイヤー 1
 62
     7
370
    13
100
AcDbLine
 10
39.76997636028852
 20
77.24235282442655
 30
0.0
 11
39.72760168581996
 21
77.24235282442655
 31
0.0
  0
LINE
  5
27F
330
1F
100
AcDbEntity
  8
レイヤー 1
 62
     7
370
    13
100
AcDbLine
 10
39.72760168581996
 20
77.24235282442655
 30
0.0
 11
39.68522701135137
 21
77.24235282442655
 31
0.0
  0
LINE
  5
280
330
1F
100
AcDbEntity
  8
レイヤー 1
 62
     7
370
    13
100
AcDbLine
 10
39.60064991718849
 20
76.81895058928936
 30
0.0
 11
39.68522701135137
 21
76.90352768345224
 31
0.0
  0
LINE
  5
281
330
1F
100
AcDbEntity
  8
レイヤー 1
 62
     7
370
    13
100
AcDbLine
 10
39.68522701135137
 20
76.90352768345224
 30
0.0
 11
39.72760168581996
 21
76.98827703238936
 31
0.0
  0
LINE
  5
282
330
1F
100
AcDbEntity
  8
レイヤー 1
 62
     7
370
    13
100
AcDbLine
 10
39.72760168581996
 20
76.98827703238936
 30
0.0
 11
39.76997636028852
 21
77.07285412655224
 31
0.0
  0
LINE
  5
283
330
1F
100
AcDbEntity
  8
レイヤー 1
 62
     7
370
    13
100
AcDbLine
 10
39.76997636028852
 20
77.07285412655224
 30
0.0
 11
39.76997636028852
 21
77.1576034754894
 31
0.0
  0
LINE
  5
284
330
1F
100
AcDbEntity
  8
レイヤー 1
 62
     7
370
    13
100
AcDbLine
 10
39.76997636028852
 20
77.1576034754894
 30
0.0
 11
39.76997636028852
 21
77.24235282442655
 31
0.0
  0
LINE
  5
285
330
1F
100
AcDbEntity
  8
レイヤー 1
 62
     7
370
    13
100
AcDbLine
 10
41.16696257955735
 20
76.48029770308929
 30
0.0
 11
41.20933725402591
 21
76.52267237755785
 31
0.0
  0
LINE
  5
286
330
1F
100
AcDbEntity
  8
レイヤー 1
 62
     7
370
    13
100
AcDbLine
 10
41.20933725402591
 20
76.52267237755785
 30
0.0
 11
41.25153967372023
 21
76.60724947172073
 31
0.0
  0
LINE
  5
287
330
1F
100
AcDbEntity
  8
レイヤー 1
 62
     7
370
    13
100
AcDbLine
 10
41.25153967372023
 20
76.60724947172073
 30
0.0
 11
41.29391434818879
 21
76.64962414618932
 31
0.0
  0
LINE
  5
288
330
1F
100
AcDbEntity
  8
レイヤー 1
 62
     7
370
    13
100
AcDbLine
 10
41.29391434818879
 20
76.64962414618932
 30
0.0
 11
41.29391434818879
 21
76.7342012403522
 31
0.0
  0
LINE
  5
289
330
1F
100
AcDbEntity
  8
レイヤー 1
 62
     7
370
    13
100
AcDbLine
 10
41.29391434818879
 20
76.7342012403522
 30
0.0
 11
41.33628902265735
 21
76.81895058928936
 31
0.0
  0
LINE
  5
28A
330
1F
100
AcDbEntity
  8
レイヤー 1
 62
     7
370
    13
100
AcDbLine
 10
41.33628902265735
 20
76.81895058928936
 30
0.0
 11
41.33628902265735
 21
76.90352768345224
 31
0.0
  0
LINE
  5
28B
330
1F
100
AcDbEntity
  8
レイヤー 1
 62
     7
370
    13
100
AcDbLine
 10
39.76997636028852
 20
77.24235282442655
 30
0.0
 11
41.33628902265735
 21
76.90352768345224
 31
0.0
  0
LINE
  5
28C
330
1F
100
AcDbEntity
  8
レイヤー 1
 62
     7
370
    13
100
AcDbLine
 10
39.89692812892
 20
78.00423569098956
 30
0.0
 11
39.76997636028852
 21
77.24235282442655
 31
0.0
  0
LINE
  5
28D
330
1F
100
AcDbEntity
  8
レイヤー 1
 62
     7
370
    13
100
AcDbLine
 10
39.89692812892
 20
78.00423569098956
 30
0.0
 11
39.85455345445141
 21
78.00423569098956
 31
0.0
  0
LINE
  5
28E
330
1F
100
AcDbEntity
  8
レイヤー 1
 62
     7
370
    13
100
AcDbLine
 10
39.85455345445141
 20
78.00423569098956
 30
0.0
 11
39.81235103475711
 21
78.00423569098956
 31
0.0
  0
LINE
  5
28F
330
1F
100
AcDbEntity
  8
レイヤー 1
 62
     7
370
    13
100
AcDbLine
 10
41.46324079128883
 20
77.6655828047895
 30
0.0
 11
41.33628902265735
 21
76.90352768345224
 31
0.0
  0
LINE
  5
290
330
1F
100
AcDbEntity
  8
レイヤー 1
 62
     7
370
    13
100
AcDbLine
 10
39.89692812892
 20
78.00423569098956
 30
0.0
 11
41.46324079128883
 21
77.6655828047895
 31
0.0
  0
LINE
  5
291
330
1F
100
AcDbEntity
  8
レイヤー 1
 62
     7
370
    13
100
AcDbLine
 10
39.72760168581996
 20
78.42763792612675
 30
0.0
 11
39.76997636028852
 21
78.42763792612675
 31
0.0
  0
POINT
  5
292
330
1F
100
AcDbEntity
  8
レイヤー 1
 62
     7
370
    13
100
AcDbPoint
 10
39.72760168581996
 20
78.42763792612675
 30
0.0
  0
LINE
  5
293
330
1F
100
AcDbEntity
  8
レイヤー 1
 62
     7
370
    13
100
AcDbLine
 10
41.29391434818879
 20
78.131187459621
 30
0.0
 11
41.33628902265735
 21
78.08898503992668
 31
0.0
  0
LINE
  5
294
330
1F
100
AcDbEntity
  8
レイヤー 1
 62
     7
370
    13
100
AcDbLine
 10
41.33628902265735
 20
78.08898503992668
 30
0.0
 11
41.37866369712594
 21
78.08898503992668
 31
0.0
  0
LINE
  5
295
330
1F
100
AcDbEntity
  8
レイヤー 1
 62
     7
370
    13
100
AcDbLine
 10
41.37866369712594
 20
78.08898503992668
 30
0.0
 11
41.42086611682026
 21
78.04661036545812
 31
0.0
  0
LINE
  5
296
330
1F
100
AcDbEntity
  8
レイヤー 1
 62
     7
370
    13
100
AcDbLine
 10
41.42086611682026
 20
78.04661036545812
 30
0.0
 11
41.42086611682026
 21
78.00423569098956
 31
0.0
  0
LINE
  5
297
330
1F
100
AcDbEntity
  8
レイヤー 1
 62
     7
370
    13
100
AcDbLine
 10
41.42086611682026
 20
78.00423569098956
 30
0.0
 11
41.46324079128883
 21
77.91965859682668
 31
0.0
  0
LINE
  5
298
330
1F
100
AcDbEntity
  8
レイヤー 1
 62
     7
370
    13
100
AcDbLine
 10
41.46324079128883
 20
77.91965859682668
 30
0.0
 11
41.46324079128883
 21
77.83490924788953
 31
0.0
  0
LINE
  5
299
330
1F
100
AcDbEntity
  8
レイヤー 1
 62
     7
370
    13
100
AcDbLine
 10
41.46324079128883
 20
77.83490924788953
 30
0.0
 11
41.46324079128883
 21
77.75015989895238
 31
0.0
  0
LINE
  5
29A
330
1F
100
AcDbEntity
  8
レイヤー 1
 62
     7
370
    13
100
AcDbLine
 10
41.46324079128883
 20
77.75015989895238
 30
0.0
 11
41.46324079128883
 21
77.6655828047895
 31
0.0
  0
POINT
  5
29B
330
1F
100
AcDbEntity
  8
レイヤー 1
 62
     7
370
    13
100
AcDbPoint
 10
30.03327524510118
 20
77.49625636168946
 30
0.0
  0
LINE
  5
29C
330
1F
100
AcDbEntity
  8
レイヤー 1
 62
     7
370
    13
100
AcDbLine
 10
30.03327524510118
 20
77.49625636168946
 30
0.0
 11
29.99090057063259
 21
77.49625636168946
 31
0.0
  0
POINT
  5
29D
330
1F
100
AcDbEntity
  8
レイヤー 1
 62
     7
370
    13
100
AcDbPoint
 10
29.90632347646971
 20
76.7342012403522
 30
0.0
  0
LINE
  5
29E
330
1F
100
AcDbEntity
  8
レイヤー 1
 62
     7
370
    13
100
AcDbLine
 10
29.90632347646971
 20
76.7342012403522
 30
0.0
 11
29.90632347646971
 21
76.69182656588362
 31
0.0
  0
LINE
  5
29F
330
1F
100
AcDbEntity
  8
レイヤー 1
 62
     7
370
    13
100
AcDbLine
 10
287.1236980866446
 20
23.22497816345174
 30
0.0
 11
287.1236980866446
 21
23.35192993208318
 31
0.0
  0
LINE
  5
2A0
330
1F
100
AcDbEntity
  8
レイヤー 1
 62
     7
370
    13
100
AcDbLine
 10
287.1236980866446
 20
23.35192993208318
 30
0.0
 11
287.1236980866446
 21
23.43650702624606
 31
0.0
  0
LINE
  5
2A1
330
1F
100
AcDbEntity
  8
レイヤー 1
 62
     7
370
    13
100
AcDbLine
 10
287.1236980866446
 20
23.43650702624606
 30
0.0
 11
287.1236980866446
 21
23.52125637518321
 31
0.0
  0
LINE
  5
2A2
330
1F
100
AcDbEntity
  8
レイヤー 1
 62
     7
370
    13
100
AcDbLine
 10
287.1236980866446
 20
23.52125637518321
 30
0.0
 11
287.1236980866446
 21
23.56363104965178
 31
0.0
  0
LINE
  5
2A3
330
1F
100
AcDbEntity
  8
レイヤー 1
 62
     7
370
    13
100
AcDbLine
 10
287.1236980866446
 20
23.56363104965178
 30
0.0
 11
287.0813234121759
 21
23.64820814381466
 31
0.0
  0
LINE
  5
2A4
330
1F
100
AcDbEntity
  8
レイヤー 1
 62
     7
370
    13
100
AcDbLine
 10
287.0813234121759
 20
23.64820814381466
 30
0.0
 11
287.0389487377074
 21
23.69058281828325
 31
0.0
  0
LINE
  5
2A5
330
1F
100
AcDbEntity
  8
レイヤー 1
 62
     7
370
    13
100
AcDbLine
 10
287.0389487377074
 20
23.69058281828325
 30
0.0
 11
286.9965740632389
 21
23.69058281828325
 31
0.0
  0
LINE
  5
2A6
330
1F
100
AcDbEntity
  8
レイヤー 1
 62
     7
370
    13
100
AcDbLine
 10
286.9965740632389
 20
22.46292304211445
 30
0.0
 11
287.1236980866446
 21
23.22497816345174
 31
0.0
  0
LINE
  5
2A7
330
1F
100
AcDbEntity
  8
レイヤー 1
 62
     7
370
    13
100
AcDbLine
 10
286.8270753653645
 20
22.03952080697727
 30
0.0
 11
286.8697945493816
 21
22.12427015591439
 31
0.0
  0
LINE
  5
2A8
330
1F
100
AcDbEntity
  8
レイヤー 1
 62
     7
370
    13
100
AcDbLine
 10
286.8697945493816
 20
22.12427015591439
 30
0.0
 11
286.9118247143017
 21
22.16664483038298
 31
0.0
  0
LINE
  5
2A9
330
1F
100
AcDbEntity
  8
レイヤー 1
 62
     7
370
    13
100
AcDbLine
 10
286.9118247143017
 20
22.16664483038298
 30
0.0
 11
286.9541993887702
 21
22.25122192454586
 31
0.0
  0
LINE
  5
2AA
330
1F
100
AcDbEntity
  8
レイヤー 1
 62
     7
370
    13
100
AcDbLine
 10
286.9541993887702
 20
22.25122192454586
 30
0.0
 11
286.9965740632389
 21
22.33597127348301
 31
0.0
  0
LINE
  5
2AB
330
1F
100
AcDbEntity
  8
レイヤー 1
 62
     7
370
    13
100
AcDbLine
 10
286.9965740632389
 20
22.33597127348301
 30
0.0
 11
286.9965740632389
 21
22.3781736931773
 31
0.0
  0
LINE
  5
2AC
330
1F
100
AcDbEntity
  8
レイヤー 1
 62
     7
370
    13
100
AcDbLine
 10
286.9965740632389
 20
22.3781736931773
 30
0.0
 11
286.9965740632389
 21
22.46292304211445
 31
0.0
  0
LINE
  5
2AD
330
1F
100
AcDbEntity
  8
レイヤー 1
 62
     7
370
    13
100
AcDbLine
 10
280.2231718296891
 20
19.58420125463971
 30
0.0
 11
280.6889487392949
 21
19.4996241604768
 31
0.0
  0
LINE
  5
2AE
330
1F
100
AcDbEntity
  8
レイヤー 1
 62
     7
370
    13
100
AcDbLine
 10
280.6889487392949
 20
19.4996241604768
 30
0.0
 11
281.3238798372264
 21
19.45724948600824
 31
0.0
  0
LINE
  5
2AF
330
1F
100
AcDbEntity
  8
レイヤー 1
 62
     7
370
    13
100
AcDbLine
 10
281.3238798372264
 20
19.45724948600824
 30
0.0
 11
282.0011856096265
 21
19.4996241604768
 31
0.0
  0
LINE
  5
2B0
330
1F
100
AcDbEntity
  8
レイヤー 1
 62
     7
370
    13
100
AcDbLine
 10
282.0011856096265
 20
19.4996241604768
 30
0.0
 11
282.6784913820267
 21
19.62657592910827
 31
0.0
  0
LINE
  5
2B1
330
1F
100
AcDbEntity
  8
レイヤー 1
 62
     7
370
    13
100
AcDbLine
 10
282.6784913820267
 20
19.62657592910827
 30
0.0
 11
283.3981718288953
 21
19.7959023722083
 31
0.0
  0
LINE
  5
2B2
330
1F
100
AcDbEntity
  8
レイヤー 1
 62
     7
370
    13
100
AcDbLine
 10
283.3981718288953
 20
19.7959023722083
 30
0.0
 11
284.0754776012955
 21
20.09218058393978
 31
0.0
  0
LINE
  5
2B3
330
1F
100
AcDbEntity
  8
レイヤー 1
 62
     7
370
    13
100
AcDbLine
 10
284.0754776012955
 20
20.09218058393978
 30
0.0
 11
284.7531278832441
 21
20.47320814460841
 31
0.0
  0
LINE
  5
2B4
330
1F
100
AcDbEntity
  8
レイヤー 1
 62
     7
370
    13
100
AcDbLine
 10
284.7531278832441
 20
20.47320814460841
 30
0.0
 11
285.4724638205643
 21
20.93898505421419
 31
0.0
  0
LINE
  5
2B5
330
1F
100
AcDbEntity
  8
レイヤー 1
 62
     7
370
    13
100
AcDbLine
 10
285.4724638205643
 20
20.93898505421419
 30
0.0
 11
286.1497695929644
 21
21.44696438351428
 31
0.0
  0
LINE
  5
2B6
330
1F
100
AcDbEntity
  8
レイヤー 1
 62
     7
370
    13
100
AcDbLine
 10
286.1497695929644
 20
21.44696438351428
 30
0.0
 11
286.8270753653645
 21
22.03952080697727
 31
0.0
  0
LINE
  5
2B7
330
1F
100
AcDbEntity
  8
レイヤー 1
 62
     7
370
    13
100
AcDbLine
 10
288.351185608039
 20
21.74324259524576
 30
0.0
 11
286.8270753653645
 21
22.03952080697727
 31
0.0
  0
LINE
  5
2B8
330
1F
100
AcDbEntity
  8
レイヤー 1
 62
     7
370
    13
100
AcDbLine
 10
281.958810935158
 20
19.24554836843964
 30
0.0
 11
282.2130589819694
 21
19.20317369397105
 31
0.0
  0
LINE
  5
2B9
330
1F
100
AcDbEntity
  8
レイヤー 1
 62
     7
370
    13
100
AcDbLine
 10
282.2130589819694
 20
19.20317369397105
 30
0.0
 11
282.8903647543696
 21
19.16097127427676
 31
0.0
  0
LINE
  5
2BA
330
1F
100
AcDbEntity
  8
レイヤー 1
 62
     7
370
    13
100
AcDbLine
 10
282.8903647543696
 20
19.16097127427676
 30
0.0
 11
283.5676705267697
 21
19.16097127427676
 31
0.0
  0
LINE
  5
2BB
330
1F
100
AcDbEntity
  8
レイヤー 1
 62
     7
370
    13
100
AcDbLine
 10
283.5676705267697
 20
19.16097127427676
 30
0.0
 11
284.2449762991698
 21
19.2879230429082
 31
0.0
  0
LINE
  5
2BC
330
1F
100
AcDbEntity
  8
レイヤー 1
 62
     7
370
    13
100
AcDbLine
 10
284.2449762991698
 20
19.2879230429082
 30
0.0
 11
284.92228207157
 21
19.4996241604768
 31
0.0
  0
LINE
  5
2BD
330
1F
100
AcDbEntity
  8
レイヤー 1
 62
     7
370
    13
100
AcDbLine
 10
284.92228207157
 20
19.4996241604768
 30
0.0
 11
285.59958784397
 21
19.7959023722083
 31
0.0
  0
LINE
  5
2BE
330
1F
100
AcDbEntity
  8
レイヤー 1
 62
     7
370
    13
100
AcDbLine
 10
285.59958784397
 20
19.7959023722083
 30
0.0
 11
286.3192682908387
 21
20.17692993287693
 31
0.0
  0
LINE
  5
2BF
330
1F
100
AcDbEntity
  8
レイヤー 1
 62
     7
370
    13
100
AcDbLine
 10
286.3192682908387
 20
20.17692993287693
 30
0.0
 11
286.9965740632389
 21
20.60033216801415
 31
0.0
  0
LINE
  5
2C0
330
1F
100
AcDbEntity
  8
レイヤー 1
 62
     7
370
    13
100
AcDbLine
 10
286.9965740632389
 20
20.60033216801415
 30
0.0
 11
287.6738798356389
 21
21.15051391700854
 31
0.0
  0
LINE
  5
2C1
330
1F
100
AcDbEntity
  8
レイヤー 1
 62
     7
370
    13
100
AcDbLine
 10
287.6738798356389
 20
21.15051391700854
 30
0.0
 11
288.351185608039
 21
21.74324259524576
 31
0.0
  0
LINE
  5
2C2
330
1F
100
AcDbEntity
  8
レイヤー 1
 62
     7
370
    13
100
AcDbLine
 10
288.5206843059134
 20
22.12427015591439
 30
0.0
 11
286.9965740632389
 21
22.46292304211445
 31
0.0
  0
LINE
  5
2C3
330
1F
100
AcDbEntity
  8
レイヤー 1
 62
     7
370
    13
100
AcDbLine
 10
288.351185608039
 20
21.74324259524576
 30
0.0
 11
288.4359349569762
 21
21.82799194418291
 31
0.0
  0
LINE
  5
2C4
330
1F
100
AcDbEntity
  8
レイヤー 1
 62
     7
370
    13
100
AcDbLine
 10
288.4359349569762
 20
21.82799194418291
 30
0.0
 11
288.4783096314447
 21
21.87019436387723
 31
0.0
  0
LINE
  5
2C5
330
1F
100
AcDbEntity
  8
レイヤー 1
 62
     7
370
    13
100
AcDbLine
 10
288.4783096314447
 20
21.87019436387723
 30
0.0
 11
288.4783096314447
 21
21.95494371281438
 31
0.0
  0
LINE
  5
2C6
330
1F
100
AcDbEntity
  8
レイヤー 1
 62
     7
370
    13
100
AcDbLine
 10
288.4783096314447
 20
21.95494371281438
 30
0.0
 11
288.5206843059134
 21
22.03952080697727
 31
0.0
  0
LINE
  5
2C7
330
1F
100
AcDbEntity
  8
レイヤー 1
 62
     7
370
    13
100
AcDbLine
 10
288.5206843059134
 20
22.03952080697727
 30
0.0
 11
288.5206843059134
 21
22.12427015591439
 31
0.0
  0
LINE
  5
2C8
330
1F
100
AcDbEntity
  8
レイヤー 1
 62
     7
370
    13
100
AcDbLine
 10
288.6474638197706
 20
22.88632527725167
 30
0.0
 11
287.1236980866446
 21
23.22497816345174
 31
0.0
  0
LINE
  5
2C9
330
1F
100
AcDbEntity
  8
レイヤー 1
 62
     7
370
    13
100
AcDbLine
 10
288.5206843059134
 20
22.12427015591439
 30
0.0
 11
288.6474638197706
 21
22.88632527725167
 31
0.0
  0
LINE
  5
2CA
330
1F
100
AcDbEntity
  8
レイヤー 1
 62
     7
370
    13
100
AcDbLine
 10
288.351185608039
 20
21.74324259524576
 30
0.0
 11
288.3935602825077
 21
21.74324259524576
 31
0.0
  0
LINE
  5
2CB
330
1F
100
AcDbEntity
  8
レイヤー 1
 62
     7
370
    13
100
AcDbLine
 10
41.46324079128883
 20
77.6655828047895
 30
0.0
 11
41.46324079128883
 21
77.75015989895238
 31
0.0
  0
LINE
  5
2CC
330
1F
100
AcDbEntity
  8
レイヤー 1
 62
     7
370
    13
100
AcDbLine
 10
41.46324079128883
 20
77.75015989895238
 30
0.0
 11
41.46324079128883
 21
77.83490924788953
 31
0.0
  0
LINE
  5
2CD
330
1F
100
AcDbEntity
  8
レイヤー 1
 62
     7
370
    13
100
AcDbLine
 10
41.46324079128883
 20
77.83490924788953
 30
0.0
 11
41.46324079128883
 21
77.91965859682668
 31
0.0
  0
LINE
  5
2CE
330
1F
100
AcDbEntity
  8
レイヤー 1
 62
     7
370
    13
100
AcDbLine
 10
41.46324079128883
 20
77.91965859682668
 30
0.0
 11
41.42086611682026
 21
78.00423569098956
 31
0.0
  0
LINE
  5
2CF
330
1F
100
AcDbEntity
  8
レイヤー 1
 62
     7
370
    13
100
AcDbLine
 10
41.42086611682026
 20
78.00423569098956
 30
0.0
 11
41.42086611682026
 21
78.04661036545812
 31
0.0
  0
LINE
  5
2D0
330
1F
100
AcDbEntity
  8
レイヤー 1
 62
     7
370
    13
100
AcDbLine
 10
41.42086611682026
 20
78.04661036545812
 30
0.0
 11
41.37866369712594
 21
78.08898503992668
 31
0.0
  0
LINE
  5
2D1
330
1F
100
AcDbEntity
  8
レイヤー 1
 62
     7
370
    13
100
AcDbLine
 10
41.37866369712594
 20
78.08898503992668
 30
0.0
 11
41.33628902265735
 21
78.08898503992668
 31
0.0
  0
LINE
  5
2D2
330
1F
100
AcDbEntity
  8
レイヤー 1
 62
     7
370
    13
100
AcDbLine
 10
41.33628902265735
 20
78.08898503992668
 30
0.0
 11
41.29391434818879
 21
78.08898503992668
 31
0.0
  0
LINE
  5
2D3
330
1F
100
AcDbEntity
  8
レイヤー 1
 62
     7
370
    13
100
AcDbLine
 10
41.33628902265735
 20
76.90352768345224
 30
0.0
 11
41.46324079128883
 21
77.6655828047895
 31
0.0
  0
LINE
  5
2D4
330
1F
100
AcDbEntity
  8
レイヤー 1
 62
     7
370
    13
100
AcDbLine
 10
41.16696257955735
 20
76.48029770308929
 30
0.0
 11
41.20933725402591
 21
76.52267237755785
 31
0.0
  0
LINE
  5
2D5
330
1F
100
AcDbEntity
  8
レイヤー 1
 62
     7
370
    13
100
AcDbLine
 10
41.20933725402591
 20
76.52267237755785
 30
0.0
 11
41.25153967372023
 21
76.60724947172073
 31
0.0
  0
LINE
  5
2D6
330
1F
100
AcDbEntity
  8
レイヤー 1
 62
     7
370
    13
100
AcDbLine
 10
41.25153967372023
 20
76.60724947172073
 30
0.0
 11
41.29391434818879
 21
76.64962414618932
 31
0.0
  0
LINE
  5
2D7
330
1F
100
AcDbEntity
  8
レイヤー 1
 62
     7
370
    13
100
AcDbLine
 10
41.29391434818879
 20
76.64962414618932
 30
0.0
 11
41.29391434818879
 21
76.7342012403522
 31
0.0
  0
LINE
  5
2D8
330
1F
100
AcDbEntity
  8
レイヤー 1
 62
     7
370
    13
100
AcDbLine
 10
41.29391434818879
 20
76.7342012403522
 30
0.0
 11
41.33628902265735
 21
76.81895058928936
 31
0.0
  0
LINE
  5
2D9
330
1F
100
AcDbEntity
  8
レイヤー 1
 62
     7
370
    13
100
AcDbLine
 10
41.33628902265735
 20
76.81895058928936
 30
0.0
 11
41.33628902265735
 21
76.90352768345224
 31
0.0
  0
LINE
  5
2DA
330
1F
100
AcDbEntity
  8
レイヤー 1
 62
     7
370
    13
100
AcDbLine
 10
34.64763613804482
 20
73.98260347628315
 30
0.0
 11
35.02866369871344
 21
73.897854127346
 31
0.0
  0
LINE
  5
2DB
330
1F
100
AcDbEntity
  8
レイヤー 1
 62
     7
370
    13
100
AcDbLine
 10
35.02866369871344
 20
73.897854127346
 30
0.0
 11
35.66359479664499
 21
73.8556517076517
 31
0.0
  0
LINE
  5
2DC
330
1F
100
AcDbEntity
  8
レイヤー 1
 62
     7
370
    13
100
AcDbLine
 10
35.66359479664499
 20
73.8556517076517
 30
0.0
 11
36.34090056904509
 21
73.897854127346
 31
0.0
  0
LINE
  5
2DD
330
1F
100
AcDbEntity
  8
レイヤー 1
 62
     7
370
    13
100
AcDbLine
 10
36.34090056904509
 20
73.897854127346
 30
0.0
 11
37.01820634144522
 21
74.02497815075174
 31
0.0
  0
LINE
  5
2DE
330
1F
100
AcDbEntity
  8
レイヤー 1
 62
     7
370
    13
100
AcDbLine
 10
37.01820634144522
 20
74.02497815075174
 30
0.0
 11
37.6956843686196
 21
74.23650701354606
 31
0.0
  0
LINE
  5
2DF
330
1F
100
AcDbEntity
  8
レイヤー 1
 62
     7
370
    13
100
AcDbLine
 10
37.6956843686196
 20
74.23650701354606
 30
0.0
 11
38.41519256071402
 21
74.5329574800518
 31
0.0
  0
LINE
  5
2E0
330
1F
100
AcDbEntity
  8
レイヤー 1
 62
     7
370
    13
100
AcDbLine
 10
38.41519256071402
 20
74.5329574800518
 30
0.0
 11
39.09267058788842
 21
74.87161036625187
 31
0.0
  0
LINE
  5
2E1
330
1F
100
AcDbEntity
  8
レイヤー 1
 62
     7
370
    13
100
AcDbLine
 10
39.09267058788842
 20
74.87161036625187
 30
0.0
 11
39.81235103475711
 21
75.33721502108338
 31
0.0
  0
LINE
  5
2E2
330
1F
100
AcDbEntity
  8
レイヤー 1
 62
     7
370
    13
100
AcDbLine
 10
39.81235103475711
 20
75.33721502108338
 30
0.0
 11
40.48965680715722
 21
75.84519435038348
 31
0.0
  0
LINE
  5
2E3
330
1F
100
AcDbEntity
  8
レイヤー 1
 62
     7
370
    13
100
AcDbLine
 10
40.48965680715722
 20
75.84519435038348
 30
0.0
 11
41.16696257955735
 21
76.48029770308929
 31
0.0
  0
LINE
  5
2E4
330
1F
100
AcDbEntity
  8
レイヤー 1
 62
     7
370
    13
100
AcDbLine
 10
280.3079211786263
 20
19.58420125463971
 30
0.0
 11
280.6889487392949
 21
19.4996241604768
 31
0.0
  0
LINE
  5
2E5
330
1F
100
AcDbEntity
  8
レイヤー 1
 62
     7
370
    13
100
AcDbLine
 10
280.6889487392949
 20
19.4996241604768
 30
0.0
 11
281.3238798372264
 21
19.45724948600824
 31
0.0
  0
LINE
  5
2E6
330
1F
100
AcDbEntity
  8
レイヤー 1
 62
     7
370
    13
100
AcDbLine
 10
281.3238798372264
 20
19.45724948600824
 30
0.0
 11
282.0011856096265
 21
19.4996241604768
 31
0.0
  0
LINE
  5
2E7
330
1F
100
AcDbEntity
  8
レイヤー 1
 62
     7
370
    13
100
AcDbLine
 10
282.0011856096265
 20
19.4996241604768
 30
0.0
 11
282.6784913820267
 21
19.62657592910827
 31
0.0
  0
LINE
  5
2E8
330
1F
100
AcDbEntity
  8
レイヤー 1
 62
     7
370
    13
100
AcDbLine
 10
282.6784913820267
 20
19.62657592910827
 30
0.0
 11
283.3981718288953
 21
19.7959023722083
 31
0.0
  0
LINE
  5
2E9
330
1F
100
AcDbEntity
  8
レイヤー 1
 62
     7
370
    13
100
AcDbLine
 10
283.3981718288953
 20
19.7959023722083
 30
0.0
 11
284.0754776012955
 21
20.09218058393978
 31
0.0
  0
LINE
  5
2EA
330
1F
100
AcDbEntity
  8
レイヤー 1
 62
     7
370
    13
100
AcDbLine
 10
284.0754776012955
 20
20.09218058393978
 30
0.0
 11
284.7531278832441
 21
20.47320814460841
 31
0.0
  0
LINE
  5
2EB
330
1F
100
AcDbEntity
  8
レイヤー 1
 62
     7
370
    13
100
AcDbLine
 10
284.7531278832441
 20
20.47320814460841
 30
0.0
 11
285.4724638205643
 21
20.93898505421419
 31
0.0
  0
LINE
  5
2EC
330
1F
100
AcDbEntity
  8
レイヤー 1
 62
     7
370
    13
100
AcDbLine
 10
285.4724638205643
 20
20.93898505421419
 30
0.0
 11
286.1497695929644
 21
21.44696438351428
 31
0.0
  0
LINE
  5
2ED
330
1F
100
AcDbEntity
  8
レイヤー 1
 62
     7
370
    13
100
AcDbLine
 10
286.1497695929644
 20
21.44696438351428
 30
0.0
 11
286.8270753653645
 21
22.03952080697727
 31
0.0
  0
LINE
  5
2EE
330
1F
100
AcDbEntity
  8
レイヤー 1
 62
     7
370
    13
100
AcDbLine
 10
41.33628902265735
 20
76.90352768345224
 30
0.0
 11
286.9965740632389
 21
22.46292304211445
 31
0.0
  0
LINE
  5
2EF
330
1F
100
AcDbEntity
  8
レイヤー 1
 62
     7
370
    13
100
AcDbLine
 10
286.8270753653645
 20
22.03952080697727
 30
0.0
 11
286.8697945493816
 21
22.12427015591439
 31
0.0
  0
LINE
  5
2F0
330
1F
100
AcDbEntity
  8
レイヤー 1
 62
     7
370
    13
100
AcDbLine
 10
286.8697945493816
 20
22.12427015591439
 30
0.0
 11
286.9118247143017
 21
22.16664483038298
 31
0.0
  0
LINE
  5
2F1
330
1F
100
AcDbEntity
  8
レイヤー 1
 62
     7
370
    13
100
AcDbLine
 10
286.9118247143017
 20
22.16664483038298
 30
0.0
 11
286.9541993887702
 21
22.25122192454586
 31
0.0
  0
LINE
  5
2F2
330
1F
100
AcDbEntity
  8
レイヤー 1
 62
     7
370
    13
100
AcDbLine
 10
286.9541993887702
 20
22.25122192454586
 30
0.0
 11
286.9965740632389
 21
22.33597127348301
 31
0.0
  0
LINE
  5
2F3
330
1F
100
AcDbEntity
  8
レイヤー 1
 62
     7
370
    13
100
AcDbLine
 10
286.9965740632389
 20
22.33597127348301
 30
0.0
 11
286.9965740632389
 21
22.3781736931773
 31
0.0
  0
LINE
  5
2F4
330
1F
100
AcDbEntity
  8
レイヤー 1
 62
     7
370
    13
100
AcDbLine
 10
286.9965740632389
 20
22.3781736931773
 30
0.0
 11
286.9965740632389
 21
22.46292304211445
 31
0.0
  0
LINE
  5
2F5
330
1F
100
AcDbEntity
  8
レイヤー 1
 62
     7
370
    13
100
AcDbLine
 10
41.46324079128883
 20
77.6655828047895
 30
0.0
 11
287.1236980866446
 21
23.22497816345174
 31
0.0
  0
LINE
  5
2F6
330
1F
100
AcDbEntity
  8
レイヤー 1
 62
     7
370
    13
100
AcDbLine
 10
286.9965740632389
 20
22.46292304211445
 30
0.0
 11
287.1236980866446
 21
23.22497816345174
 31
0.0
  0
LINE
  5
2F7
330
1F
100
AcDbEntity
  8
レイヤー 1
 62
     7
370
    13
100
AcDbLine
 10
287.1236980866446
 20
23.22497816345174
 30
0.0
 11
287.1236980866446
 21
23.35192993208318
 31
0.0
  0
LINE
  5
2F8
330
1F
100
AcDbEntity
  8
レイヤー 1
 62
     7
370
    13
100
AcDbLine
 10
287.1236980866446
 20
23.35192993208318
 30
0.0
 11
287.1236980866446
 21
23.43650702624606
 31
0.0
  0
LINE
  5
2F9
330
1F
100
AcDbEntity
  8
レイヤー 1
 62
     7
370
    13
100
AcDbLine
 10
287.1236980866446
 20
23.43650702624606
 30
0.0
 11
287.1236980866446
 21
23.52125637518321
 31
0.0
  0
LINE
  5
2FA
330
1F
100
AcDbEntity
  8
レイヤー 1
 62
     7
370
    13
100
AcDbLine
 10
287.1236980866446
 20
23.52125637518321
 30
0.0
 11
287.1236980866446
 21
23.56363104965178
 31
0.0
  0
LINE
  5
2FB
330
1F
100
AcDbEntity
  8
レイヤー 1
 62
     7
370
    13
100
AcDbLine
 10
287.1236980866446
 20
23.56363104965178
 30
0.0
 11
287.0813234121759
 21
23.64820814381466
 31
0.0
  0
LINE
  5
2FC
330
1F
100
AcDbEntity
  8
レイヤー 1
 62
     7
370
    13
100
AcDbLine
 10
287.0813234121759
 20
23.64820814381466
 30
0.0
 11
287.0389487377074
 21
23.69058281828325
 31
0.0
  0
LINE
  5
2FD
330
1F
100
AcDbEntity
  8
レイヤー 1
 62
     7
370
    13
100
AcDbLine
 10
287.0389487377074
 20
23.69058281828325
 30
0.0
 11
286.9965740632389
 21
23.69058281828325
 31
0.0
  0
LINE
  5
2FE
330
1F
100
AcDbEntity
  8
レイヤー 1
 62
     8
370
    13
100
AcDbLine
 10
288.2244060941819
 20
23.39430460655174
 30
0.0
 11
288.3088109335705
 21
23.39430460655174
 31
0.0
  0
LINE
  5
2FF
330
1F
100
AcDbEntity
  8
レイヤー 1
 62
     8
370
    13
100
AcDbLine
 10
39.47352589378278
 20
78.59696436922678
 30
0.0
 11
30.03327524510118
 21
78.08898503992668
 31
0.0
  0
LINE
  5
300
330
1F
100
AcDbEntity
  8
レイヤー 1
 62
     8
370
    13
100
AcDbLine
 10
36.89125457281378
 20
84.14253457183344
 30
0.0
 11
36.84887989834519
 21
84.14253457183344
 31
0.0
  0
POINT
  5
301
330
1F
100
AcDbEntity
  8
レイヤー 1
 62
     8
370
    13
100
AcDbPoint
 10
77.91235102523211
 20
71.9928885787771
 30
0.0
  0
LINE
  5
302
330
1F
100
AcDbEntity
  8
レイヤー 1
 62
     8
370
    13
100
AcDbLine
 10
77.91235102523211
 20
71.9928885787771
 30
0.0
 11
77.91235102523211
 21
71.9506861590828
 31
0.0
  0
POINT
  5
303
330
1F
100
AcDbEntity
  8
レイヤー 1
 62
     8
370
    13
100
AcDbPoint
 10
76.68451899428905
 20
71.65423569257706
 30
0.0
  0
LINE
  5
304
330
1F
100
AcDbEntity
  8
レイヤー 1
 62
     8
370
    13
100
AcDbLine
 10
76.68451899428905
 20
71.65423569257706
 30
0.0
 11
76.68451899428905
 21
71.69661036704562
 31
0.0
  0
LINE
  5
305
330
1F
100
AcDbEntity
  8
レイヤー 1
 62
     8
370
    13
100
AcDbLine
 10
76.68451899428905
 20
71.69661036704562
 30
0.0
 11
76.64231657459476
 21
71.69661036704562
 31
0.0
  0
POINT
  5
306
330
1F
100
AcDbEntity
  8
レイヤー 1
 62
     8
370
    13
100
AcDbPoint
 10
257.5327394351881
 20
32.19962415730183
 30
0.0
  0
LINE
  5
307
330
1F
100
AcDbEntity
  8
レイヤー 1
 62
     8
370
    13
100
AcDbLine
 10
257.5327394351881
 20
32.19962415730183
 30
0.0
 11
257.5327394351881
 21
32.15724948283324
 31
0.0
  0
POINT
  5
308
330
1F
100
AcDbEntity
  8
レイヤー 1
 62
     8
370
    13
100
AcDbPoint
 10
256.3049074042451
 20
31.90317369079605
 30
0.0
  0
LINE
  5
309
330
1F
100
AcDbEntity
  8
レイヤー 1
 62
     8
370
    13
100
AcDbLine
 10
256.3049074042451
 20
31.90317369079605
 30
0.0
 11
256.2625327297765
 21
31.90317369079605
 31
0.0
  0
LINE
  5
30A
330
1F
100
AcDbEntity
  8
レイヤー 1
 62
     8
370
    13
100
AcDbLine
 10
40.70118566995157
 20
78.21593680855815
 30
0.0
 11
40.74356034442013
 21
78.21593680855815
 31
0.0
  0
LINE
  5
30B
330
1F
100
AcDbEntity
  8
レイヤー 1
 62
     8
370
    13
100
AcDbLine
 10
29.01731658650101
 20
77.96186101652097
 30
0.0
 11
30.07564991956974
 21
77.70795747925806
 31
0.0
  0
LINE
  5
30C
330
1F
100
AcDbEntity
  8
レイヤー 1
 62
     8
370
    13
100
AcDbLine
 10
28.97494191203242
 20
78.04661036545812
 30
0.0
 11
29.01731658650101
 21
78.04661036545812
 31
0.0
  0
LINE
  5
30D
330
1F
100
AcDbEntity
  8
レイヤー 1
 62
     8
370
    13
100
AcDbLine
 10
21.14320634541397
 20
83.12657591323327
 30
0.0
 11
21.39728213745114
 21
83.0842012387647
 31
0.0
  0
POINT
  5
30E
330
1F
100
AcDbEntity
  8
レイヤー 1
 62
     8
370
    13
100
AcDbPoint
 10
77.86997635076352
 20
71.86593681014566
 30
0.0
  0
POINT
  5
30F
330
1F
100
AcDbEntity
  8
レイヤー 1
 62
     8
370
    13
100
AcDbPoint
 10
76.72689366875764
 20
71.61186101810847
 30
0.0
  0
LINE
  5
310
330
1F
100
AcDbEntity
  8
レイヤー 1
 62
     8
370
    13
100
AcDbLine
 10
77.86997635076352
 20
71.9506861590828
 30
0.0
 11
77.91235102523211
 21
71.90831148461422
 31
0.0
  0
POINT
  5
311
330
1F
100
AcDbEntity
  8
レイヤー 1
 62
     8
370
    13
100
AcDbPoint
 10
77.91235102523211
 20
71.9506861590828
 30
0.0
  0
LINE
  5
312
330
1F
100
AcDbEntity
  8
レイヤー 1
 62
     8
370
    13
100
AcDbLine
 10
77.91235102523211
 20
71.9506861590828
 30
0.0
 11
77.86997635076352
 21
71.9506861590828
 31
0.0
  0
LINE
  5
313
330
1F
100
AcDbEntity
  8
レイヤー 1
 62
     8
370
    13
100
AcDbLine
 10
21.10100392571967
 20
83.33827703080186
 30
0.0
 11
21.14320634541397
 21
83.33827703080186
 31
0.0
  0
POINT
  5
314
330
1F
100
AcDbEntity
  8
レイヤー 1
 62
     8
370
    13
100
AcDbPoint
 10
256.3472820787136
 20
31.81859659663317
 30
0.0
  0
POINT
  5
315
330
1F
100
AcDbEntity
  8
レイヤー 1
 62
     8
370
    13
100
AcDbPoint
 10
257.4903647607196
 20
32.11487480836468
 30
0.0
  0
POINT
  5
316
330
1F
100
AcDbEntity
  8
レイヤー 1
 62
     8
370
    13
100
AcDbPoint
 10
257.4903647607196
 20
32.15724948283324
 30
0.0
  0
LINE
  5
317
330
1F
100
AcDbEntity
  8
レイヤー 1
 62
     8
370
    13
100
AcDbLine
 10
257.4903647607196
 20
32.15724948283324
 30
0.0
 11
257.5327394351881
 21
32.15724948283324
 31
0.0
  0
POINT
  5
318
330
1F
100
AcDbEntity
  8
レイヤー 1
 62
     8
370
    13
100
AcDbPoint
 10
257.5327394351881
 20
32.15724948283324
 30
0.0
  0
LINE
  5
319
330
1F
100
AcDbEntity
  8
レイヤー 1
 62
     8
370
    13
100
AcDbLine
 10
257.5327394351881
 20
32.15724948283324
 30
0.0
 11
257.4903647607196
 21
32.15724948283324
 31
0.0
  0
LINE
  5
31A
330
1F
100
AcDbEntity
  8
レイヤー 1
 62
     8
370
    13
100
AcDbLine
 10
32.14994191123867
 20
74.74465859762043
 30
0.0
 11
32.19231658570726
 21
74.70228392315184
 31
0.0
  0
LINE
  5
31B
330
1F
100
AcDbEntity
  8
レイヤー 1
 62
     8
370
    13
100
AcDbLine
 10
32.19231658570726
 20
74.70228392315184
 30
0.0
 11
32.74267058947592
 21
74.5329574800518
 31
0.0
  0
POINT
  5
31C
330
1F
100
AcDbEntity
  8
レイヤー 1
 62
     8
370
    13
100
AcDbPoint
 10
39.76997636028852
 20
78.42763792612675
 30
0.0
  0
LINE
  5
31D
330
1F
100
AcDbEntity
  8
レイヤー 1
 62
     8
370
    13
100
AcDbLine
 10
39.76997636028852
 20
78.42763792612675
 30
0.0
 11
39.81235103475711
 21
78.38526325165819
 31
0.0
  0
LINE
  5
31E
330
1F
100
AcDbEntity
  8
レイヤー 1
 62
     8
370
    13
100
AcDbLine
 10
39.81235103475711
 20
78.38526325165819
 30
0.0
 11
39.85455345445141
 21
78.3428885771896
 31
0.0
  0
LINE
  5
31F
330
1F
100
AcDbEntity
  8
レイヤー 1
 62
     8
370
    13
100
AcDbLine
 10
39.85455345445141
 20
78.3428885771896
 30
0.0
 11
39.89692812892
 21
78.3006861574953
 31
0.0
  0
LINE
  5
320
330
1F
100
AcDbEntity
  8
レイヤー 1
 62
     8
370
    13
100
AcDbLine
 10
39.89692812892
 20
78.3006861574953
 30
0.0
 11
39.89692812892
 21
78.25831148302672
 31
0.0
  0
LINE
  5
321
330
1F
100
AcDbEntity
  8
レイヤー 1
 62
     8
370
    13
100
AcDbLine
 10
39.89692812892
 20
78.25831148302672
 30
0.0
 11
39.89692812892
 21
78.1735621340896
 31
0.0
  0
LINE
  5
322
330
1F
100
AcDbEntity
  8
レイヤー 1
 62
     8
370
    13
100
AcDbLine
 10
39.89692812892
 20
78.1735621340896
 30
0.0
 11
39.89692812892
 21
78.08898503992668
 31
0.0
  0
LINE
  5
323
330
1F
100
AcDbEntity
  8
レイヤー 1
 62
     8
370
    13
100
AcDbLine
 10
39.89692812892
 20
78.08898503992668
 30
0.0
 11
39.89692812892
 21
78.00423569098956
 31
0.0
  0
LINE
  5
324
330
1F
100
AcDbEntity
  8
レイヤー 1
 62
     8
370
    13
100
AcDbLine
 10
39.72760168581996
 20
78.42763792612675
 30
0.0
 11
39.68522701135137
 21
78.42763792612675
 31
0.0
  0
LINE
  5
325
330
1F
100
AcDbEntity
  8
レイヤー 1
 62
     8
370
    13
100
AcDbLine
 10
39.68522701135137
 20
78.42763792612675
 30
0.0
 11
39.68522701135137
 21
78.38526325165819
 31
0.0
  0
LINE
  5
326
330
1F
100
AcDbEntity
  8
レイヤー 1
 62
     8
370
    13
100
AcDbLine
 10
39.68522701135137
 20
78.38526325165819
 30
0.0
 11
39.64285233688281
 21
78.38526325165819
 31
0.0
  0
LINE
  5
327
330
1F
100
AcDbEntity
  8
レイヤー 1
 62
     8
370
    13
100
AcDbLine
 10
30.32955345683266
 20
77.91965859682668
 30
0.0
 11
30.28735103713836
 21
77.91965859682668
 31
0.0
  0
LINE
  5
328
330
1F
100
AcDbEntity
  8
レイヤー 1
 62
     8
370
    13
100
AcDbLine
 10
30.28735103713836
 20
77.91965859682668
 30
0.0
 11
30.28735103713836
 21
77.87728392235809
 31
0.0
  0
LINE
  5
329
330
1F
100
AcDbEntity
  8
レイヤー 1
 62
     8
370
    13
100
AcDbLine
 10
40.23558101512003
 20
78.3428885771896
 30
0.0
 11
40.23558101512003
 21
78.3006861574953
 31
0.0
  0
LINE
  5
32A
330
1F
100
AcDbEntity
  8
レイヤー 1
 62
     8
370
    13
100
AcDbLine
 10
40.15100392095715
 20
78.3428885771896
 30
0.0
 11
40.15100392095715
 21
78.3006861574953
 31
0.0
  0
LINE
  5
32B
330
1F
100
AcDbEntity
  8
レイヤー 1
 62
     8
370
    13
100
AcDbLine
 10
34.69001081251338
 20
82.15299192910166
 30
0.0
 11
34.69001081251338
 21
82.1106172546331
 31
0.0
  0
LINE
  5
32C
330
1F
100
AcDbEntity
  8
レイヤー 1
 62
     8
370
    13
100
AcDbLine
 10
288.6474638197706
 20
22.88632527725167
 30
0.0
 11
288.6474638197706
 21
22.97090237141455
 31
0.0
  0
LINE
  5
32D
330
1F
100
AcDbEntity
  8
レイヤー 1
 62
     8
370
    13
100
AcDbLine
 10
288.6474638197706
 20
22.97090237141455
 30
0.0
 11
288.6474638197706
 21
23.0556517203517
 31
0.0
  0
LINE
  5
32E
330
1F
100
AcDbEntity
  8
レイヤー 1
 62
     8
370
    13
100
AcDbLine
 10
288.6474638197706
 20
23.0556517203517
 30
0.0
 11
288.6474638197706
 21
23.14022881451459
 31
0.0
  0
LINE
  5
32F
330
1F
100
AcDbEntity
  8
レイヤー 1
 62
     8
370
    13
100
AcDbLine
 10
288.6474638197706
 20
23.14022881451459
 30
0.0
 11
288.6054336548505
 21
23.22497816345174
 31
0.0
  0
LINE
  5
330
330
1F
100
AcDbEntity
  8
レイヤー 1
 62
     8
370
    13
100
AcDbLine
 10
288.6054336548505
 20
23.22497816345174
 30
0.0
 11
288.6054336548505
 21
23.26718058314603
 31
0.0
  0
LINE
  5
331
330
1F
100
AcDbEntity
  8
レイヤー 1
 62
     8
370
    13
100
AcDbLine
 10
288.6054336548505
 20
23.26718058314603
 30
0.0
 11
288.5630589803819
 21
23.30955525761462
 31
0.0
  0
LINE
  5
332
330
1F
100
AcDbEntity
  8
レイヤー 1
 62
     8
370
    13
100
AcDbLine
 10
288.5630589803819
 20
23.30955525761462
 30
0.0
 11
288.5206843059134
 21
23.30955525761462
 31
0.0
  0
POINT
  5
333
330
1F
100
AcDbEntity
  8
レイヤー 1
 62
     8
370
    13
100
AcDbPoint
 10
288.5630589803819
 20
22.12427015591439
 30
0.0
  0
LINE
  5
334
330
1F
100
AcDbEntity
  8
レイヤー 1
 62
     8
370
    13
100
AcDbLine
 10
288.5630589803819
 20
22.12427015591439
 30
0.0
 11
288.5206843059134
 21
22.12427015591439
 31
0.0
  0
POINT
  5
335
330
1F
100
AcDbEntity
  8
レイヤー 1
 62
     8
370
    13
100
AcDbPoint
 10
288.6898384942391
 20
22.88632527725167
 30
0.0
  0
LINE
  5
336
330
1F
100
AcDbEntity
  8
レイヤー 1
 62
     8
370
    13
100
AcDbLine
 10
288.6898384942391
 20
22.88632527725167
 30
0.0
 11
288.6474638197706
 21
22.88632527725167
 31
0.0
  0
LINE
  5
337
330
1F
100
AcDbEntity
  8
レイヤー 1
 62
     8
370
    13
100
AcDbLine
 10
41.16696257955735
 20
76.48029770308929
 30
0.0
 11
286.8270753653645
 21
22.03952080697727
 31
0.0
  0
MTEXT
  5
339
330
1F
100
AcDbEntity
  8
0
370
    18
100
AcDbMText
 10
39.5
 20
211.3
 30
0.0
 40
15.3901299166255
 41
230.4642365887207
 71
     1
 72
     1
  1
{\fHGPｺﾞｼｯｸM|b0|i0;OPI-12V23-PMH3・N\POPI-12V23-PMH2・N\POPI-12V23-PM2・N\POPI-12V23-PM1・N}
  7
HGPｺﾞｼｯｸM
 73
     1
 44
0.7500000000000001
  0
VIEWPORT
  5
33A
102
{ACAD_XDICTIONARY
360
344
102
}
330
1B
100
AcDbEntity
 67
     1
  8
0
100
AcDbViewport
 10
0.0
 20
0.0
 30
0.0
 40
436.05
 41
323.34
 68
     1
 69
     1
 12
206.25
 22
138.5
 13
0.0
 23
0.0
 14
10.0
 24
10.0
 15
10.0
 25
10.0
 16
0.0
 26
0.0
 36
1.0
 17
0.0
 27
0.0
 37
0.0
 42
50.0
 43
0.0
 44
0.0
 45
323.34
 50
0.0
 51
0.0
 72
   100
 90
   557152
  1

281
     0
 71
     1
 74
     0
110
0.0
120
0.0
130
0.0
111
1.0
121
0.0
131
0.0
112
0.0
122
1.0
132
0.0
 79
     0
146
0.0
  0
ENDSEC
  0
SECTION
  2
OBJECTS
  0
DICTIONARY
  5
C
330
0
100
AcDbDictionary
281
     1
  3
ACAD_GROUP
350
D
  3
ACAD_IMAGE_VARS
350
6F
  3
ACAD_LAYOUT
350
1A
  3
ACAD_MATERIAL
350
43
  3
ACAD_MLEADERSTYLE
350
6B
  3
ACAD_MLINESTYLE
350
17
  3
ACAD_PLOTSETTINGS
350
19
  3
ACAD_PLOTSTYLENAME
350
E
  3
ACAD_SCALELIST
350
47
  3
ACAD_TABLESTYLE
350
69
  3
ACAD_VISUALSTYLE
350
2A
  3
AcDbVariableDictionary
350
33C
  3
DWGPROPS
350
343
  0
DICTIONARY
  5
346
330
8
100
AcDbDictionary
280
     1
281
     1
  3
ACAD_XREC_ROUNDTRIP
360
347
  0
DICTIONARY
  5
344
330
33A
100
AcDbDictionary
280
     1
281
     1
  3
ACAD_XREC_ROUNDTRIP
360
345
  0
DICTIONARY
  5
D
102
{ACAD_REACTORS
330
C
102
}
330
C
100
AcDbDictionary
281
     1
  0
RASTERVARIABLES
  5
6F
102
{ACAD_REACTORS
330
C
102
}
330
C
100
AcDbRasterVariables
 90
        0
 70
     0
 71
     1
 72
     0
  0
DICTIONARY
  5
1A
102
{ACAD_REACTORS
330
C
102
}
330
C
100
AcDbDictionary
281
     1
  3
Model
350
22
  3
レイアウト1
350
1E
  0
DICTIONARY
  5
43
102
{ACAD_REACTORS
330
C
102
}
330
C
100
AcDbDictionary
281
     1
  3
ByBlock
350
45
  3
ByLayer
350
44
  3
Global
350
46
  0
DICTIONARY
  5
6B
102
{ACAD_REACTORS
330
C
102
}
330
C
100
AcDbDictionary
281
     1
  3
Standard
350
6C
  0
DICTIONARY
  5
17
102
{ACAD_REACTORS
330
C
102
}
330
C
100
AcDbDictionary
281
     1
  3
Standard
350
18
  0
DICTIONARY
  5
19
102
{ACAD_REACTORS
330
C
102
}
330
C
100
AcDbDictionary
281
     1
  0
ACDBDICTIONARYWDFLT
  5
E
102
{ACAD_REACTORS
330
C
102
}
330
C
100
AcDbDictionary
281
     1
  3
Normal
350
F
100
AcDbDictionaryWithDefault
340
F
  0
DICTIONARY
  5
47
102
{ACAD_REACTORS
330
C
102
}
330
C
100
AcDbDictionary
281
     1
  3
A0
350
48
  3
A1
350
49
  3
A2
350
4A
  3
A3
350
4B
  3
A4
350
4C
  3
A5
350
4D
  3
A6
350
4E
  3
A7
350
4F
  3
A8
350
50
  3
A9
350
51
  3
B0
350
52
  3
B1
350
53
  3
B2
350
54
  3
B3
350
55
  3
B4
350
56
  3
B5
350
57
  3
B6
350
58
  3
B7
350
59
  3
B8
350
5A
  3
B9
350
5B
  3
C0
350
5C
  3
C1
350
5D
  3
C2
350
5E
  3
C3
350
5F
  3
C4
350
60
  3
C5
350
61
  3
C6
350
62
  3
C7
350
63
  3
C8
350
64
  3
C9
350
65
  3
D0
350
66
  3
D1
350
67
  3
D2
350
68
  0
DICTIONARY
  5
69
102
{ACAD_REACTORS
330
C
102
}
330
C
100
AcDbDictionary
281
     1
  3
Standard
350
6A
  0
DICTIONARY
  5
2A
102
{ACAD_REACTORS
330
C
102
}
330
C
100
AcDbDictionary
281
     1
  3
2dWireframe
350
2F
  3
Basic
350
32
  3
Brighten
350
36
  3
ColorChange
350
3A
  3
Conceptual
350
34
  3
Dim
350
35
  3
EdgeColorOff
350
3D
  3
Facepattern
350
39
  3
Flat
350
2B
  3
FlatWithEdges
350
2C
  3
Gouraud
350
2D
  3
GouraudWithEdges
350
2E
  3
Hidden
350
31
  3
JitterOff
350
3B
  3
Linepattern
350
38
  3
OverhangOff
350
3C
  3
Realistic
350
33
  3
Shaded
350
42
  3
Shaded with edges
350
41
  3
Shades of Gray
350
3E
  3
Sketchy
350
3F
  3
Thicken
350
37
  3
Wireframe
350
30
  3
X-Ray
350
40
  0
DICTIONARY
  5
33C
102
{ACAD_REACTORS
330
C
102
}
330
C
100
AcDbDictionary
281
     1
  3
CANNOSCALE
350
348
  3
CMLEADERSTYLE
350
33E
  3
CTABLESTYLE
350
33D
  3
DIMASSOC
350
341
  3
HIDETEXT
350
342
  3
MSLTSCALE
350
349
  0
XRECORD
  5
343
102
{ACAD_REACTORS
330
C
102
}
330
C
100
AcDbXrecord
280
     1
  1
DWGPROPS COOKIE
  2

  3

  4

  6

  7

  8
Hirofumi.Sakurai
  9

300
=
301
=
302
=
303
=
304
=
305
=
306
=
307
=
308
=
309
=
 40
0.0
 41
2459135.234338217
 42
2459135.234340799
  1

 90
        0
  0
XRECORD
  5
347
102
{ACAD_REACTORS
330
346
102
}
330
346
100
AcDbXrecord
280
     1
102
VTR_0.000_0.000_1.000_1.000_VISUALSTYLE
340
2F
102
VTR_0.000_0.000_1.000_1.000_GRIDDISPLAY
 70
     3
102
VTR_0.000_0.000_1.000_1.000_GRIDMAJOR
 70
     5
102
VTR_0.000_0.000_1.000_1.000_DEFAULTLIGHTING
280
     1
102
VTR_0.000_0.000_1.000_1.000_DEFAULTLIGHTINGTYPE
 70
     1
102
VTR_0.000_0.000_1.000_1.000_BRIGHTNESS
141
0.0
102
VTR_0.000_0.000_1.000_1.000_CONTRAST
142
0.0
  0
XRECORD
  5
345
102
{ACAD_REACTORS
330
344
102
}
330
344
100
AcDbXrecord
280
     1
102
VISUALSTYLE
340
2F
102
GRIDDISPLAY
 70
     2
102
GRIDMAJOR
 70
     5
102
DEFAULTLIGHTING
280
     1
102
DEFAULTLIGHTINGTYPE
 70
     1
102
BRIGHTNESS
141
0.0
102
CONTRAST
142
0.0
  0
LAYOUT
  5
22
102
{ACAD_REACTORS
330
1A
102
}
330
1A
100
AcDbPlotSettings
  1

  2
none_device
  4
Letter_(8.50_x_11.00_Inches)
  6

 40
6.35
 41
6.35
 42
6.35000508
 43
6.35000508
 44
215.9
 45
279.4
 46
0.0
 47
0.0
 48
0.0
 49
0.0
140
0.0
141
0.0
142
1.0
143
1.0
 70
  1712
 72
     0
 73
     0
 74
     0
  7

 75
     0
147
1.0
148
0.0
149
0.0
100
AcDbLayout
  1
Model
 70
     1
 71
     0
 10
26.27031822097814
 20
23.95121409284595
 11
374.779622604337
 21
264.125
 12
0.0
 22
0.0
 32
0.0
 14
26.27031822097814
 24
23.95121409284595
 34
0.0
 15
374.779622604337
 25
264.125
 35
0.0
146
0.0
 13
0.0
 23
0.0
 33
0.0
 16
1.0
 26
0.0
 36
0.0
 17
0.0
 27
1.0
 37
0.0
 76
     0
330
1F
331
29
  0
LAYOUT
  5
1E
102
{ACAD_REACTORS
330
1A
102
}
330
1A
100
AcDbPlotSettings
  1

  2
none_device
  4
ISO_A3_(420.00_x_297.00_MM)
  6

 40
7.5
 41
20.0
 42
7.5
 43
20.0
 44
420.0
 45
297.0
 46
-7.5
 47
-20.0
 48
0.0
 49
0.0
140
0.0
141
0.0
142
1.0
143
1.0
 70
   688
 72
     1
 73
     0
 74
     5
  7

 75
    16
147
1.0
148
0.0
149
0.0
100
AcDbLayout
  1
レイアウト1
 70
     0
 71
     1
 10
-7.5
 20
-20.0
 11
420.0
 21
297.0
 12
0.0
 22
0.0
 32
0.0
 14
-9.375
 24
-25.0
 34
0.0
 15
525.0
 25
371.25
 35
0.0
146
0.0
 13
0.0
 23
0.0
 33
0.0
 16
1.0
 26
0.0
 36
0.0
 17
0.0
 27
1.0
 37
0.0
 76
     0
330
1B
331
33A
  0
MATERIAL
  5
45
102
{ACAD_REACTORS
330
43
102
}
102
{ACAD_XDICTIONARY
360
37C
102
}
330
43
100
AcDbMaterial
  1
ByBlock
  0
MATERIAL
  5
44
102
{ACAD_REACTORS
330
43
102
}
102
{ACAD_XDICTIONARY
360
37A
102
}
330
43
100
AcDbMaterial
  1
ByLayer
  0
MATERIAL
  5
46
102
{ACAD_REACTORS
330
43
102
}
102
{ACAD_XDICTIONARY
360
37E
102
}
330
43
100
AcDbMaterial
  1
Global
  0
MLEADERSTYLE
  5
6C
102
{ACAD_REACTORS
330
6B
102
}
102
{ACAD_XDICTIONARY
360
381
102
}
330
6B
100
AcDbMLeaderStyle
170
     2
171
     1
172
     0
 90
        2
 40
0.0
 41
0.0
173
     1
 91
-1056964608
340
14
 92
       -2
290
     1
 42
0.09
291
     1
 43
0.36
  3
Standard
341
0
 44
0.18
300

342
11
174
     1
178
     6
175
     1
176
     0
 93
-1056964608
 45
0.18
292
     0
297
     0
 46
0.18
343
0
 94
-1056964608
 47
1.0
 49
1.0
140
1.0
293
     1
141
0.0
294
     1
177
     0
142
1.0
295
     0
296
     0
143
0.125
1001
ACAD_MLEADERVER
1070
     2
  0
MLINESTYLE
  5
18
102
{ACAD_REACTORS
330
17
102
}
330
17
100
AcDbMlineStyle
  2
Standard
 70
     0
  3

 62
   256
 51
90.0
 52
90.0
 71
     2
 49
0.5
 62
   256
  6
BYLAYER
 49
-0.5
 62
   256
  6
BYLAYER
  0
ACDBPLACEHOLDER
  5
F
102
{ACAD_REACTORS
330
E
102
}
330
E
  0
SCALE
  5
48
102
{ACAD_REACTORS
330
47
102
}
330
47
100
AcDbScale
 70
     0
300
1:1
140
1.0
141
1.0
290
     1
  0
SCALE
  5
49
102
{ACAD_REACTORS
330
47
102
}
330
47
100
AcDbScale
 70
     0
300
1:2
140
1.0
141
2.0
290
     0
  0
SCALE
  5
4A
102
{ACAD_REACTORS
330
47
102
}
330
47
100
AcDbScale
 70
     0
300
1:4
140
1.0
141
4.0
290
     0
  0
SCALE
  5
4B
102
{ACAD_REACTORS
330
47
102
}
330
47
100
AcDbScale
 70
     0
300
1:5
140
1.0
141
5.0
290
     0
  0
SCALE
  5
4C
102
{ACAD_REACTORS
330
47
102
}
330
47
100
AcDbScale
 70
     0
300
1:8
140
1.0
141
8.0
290
     0
  0
SCALE
  5
4D
102
{ACAD_REACTORS
330
47
102
}
330
47
100
AcDbScale
 70
     0
300
1:10
140
1.0
141
10.0
290
     0
  0
SCALE
  5
4E
102
{ACAD_REACTORS
330
47
102
}
330
47
100
AcDbScale
 70
     0
300
1:16
140
1.0
141
16.0
290
     0
  0
SCALE
  5
4F
102
{ACAD_REACTORS
330
47
102
}
330
47
100
AcDbScale
 70
     0
300
1:20
140
1.0
141
20.0
290
     0
  0
SCALE
  5
50
102
{ACAD_REACTORS
330
47
102
}
330
47
100
AcDbScale
 70
     0
300
1:30
140
1.0
141
30.0
290
     0
  0
SCALE
  5
51
102
{ACAD_REACTORS
330
47
102
}
330
47
100
AcDbScale
 70
     0
300
1:40
140
1.0
141
40.0
290
     0
  0
SCALE
  5
52
102
{ACAD_REACTORS
330
47
102
}
330
47
100
AcDbScale
 70
     0
300
1:50
140
1.0
141
50.0
290
     0
  0
SCALE
  5
53
102
{ACAD_REACTORS
330
47
102
}
330
47
100
AcDbScale
 70
     0
300
1:100
140
1.0
141
100.0
290
     0
  0
SCALE
  5
54
102
{ACAD_REACTORS
330
47
102
}
330
47
100
AcDbScale
 70
     0
300
2:1
140
2.0
141
1.0
290
     0
  0
SCALE
  5
55
102
{ACAD_REACTORS
330
47
102
}
330
47
100
AcDbScale
 70
     0
300
4:1
140
4.0
141
1.0
290
     0
  0
SCALE
  5
56
102
{ACAD_REACTORS
330
47
102
}
330
47
100
AcDbScale
 70
     0
300
8:1
140
8.0
141
1.0
290
     0
  0
SCALE
  5
57
102
{ACAD_REACTORS
330
47
102
}
330
47
100
AcDbScale
 70
     0
300
10:1
140
10.0
141
1.0
290
     0
  0
SCALE
  5
58
102
{ACAD_REACTORS
330
47
102
}
330
47
100
AcDbScale
 70
     0
300
100:1
140
100.0
141
1.0
290
     0
  0
SCALE
  5
59
102
{ACAD_REACTORS
330
47
102
}
330
47
100
AcDbScale
 70
     0
300
1/128" = 1'-0"
140
0.0078125
141
12.0
290
     0
  0
SCALE
  5
5A
102
{ACAD_REACTORS
330
47
102
}
330
47
100
AcDbScale
 70
     0
300
1/64" = 1'-0"
140
0.015625
141
12.0
290
     0
  0
SCALE
  5
5B
102
{ACAD_REACTORS
330
47
102
}
330
47
100
AcDbScale
 70
     0
300
1/32" = 1'-0"
140
0.03125
141
12.0
290
     0
  0
SCALE
  5
5C
102
{ACAD_REACTORS
330
47
102
}
330
47
100
AcDbScale
 70
     0
300
1/16" = 1'-0"
140
0.0625
141
12.0
290
     0
  0
SCALE
  5
5D
102
{ACAD_REACTORS
330
47
102
}
330
47
100
AcDbScale
 70
     0
300
3/32" = 1'-0"
140
0.09375
141
12.0
290
     0
  0
SCALE
  5
5E
102
{ACAD_REACTORS
330
47
102
}
330
47
100
AcDbScale
 70
     0
300
1/8" = 1'-0"
140
0.125
141
12.0
290
     0
  0
SCALE
  5
5F
102
{ACAD_REACTORS
330
47
102
}
330
47
100
AcDbScale
 70
     0
300
3/16" = 1'-0"
140
0.1875
141
12.0
290
     0
  0
SCALE
  5
60
102
{ACAD_REACTORS
330
47
102
}
330
47
100
AcDbScale
 70
     0
300
1/4" = 1'-0"
140
0.25
141
12.0
290
     0
  0
SCALE
  5
61
102
{ACAD_REACTORS
330
47
102
}
330
47
100
AcDbScale
 70
     0
300
3/8" = 1'-0"
140
0.375
141
12.0
290
     0
  0
SCALE
  5
62
102
{ACAD_REACTORS
330
47
102
}
330
47
100
AcDbScale
 70
     0
300
1/2" = 1'-0"
140
0.5
141
12.0
290
     0
  0
SCALE
  5
63
102
{ACAD_REACTORS
330
47
102
}
330
47
100
AcDbScale
 70
     0
300
3/4" = 1'-0"
140
0.75
141
12.0
290
     0
  0
SCALE
  5
64
102
{ACAD_REACTORS
330
47
102
}
330
47
100
AcDbScale
 70
     0
300
1" = 1'-0"
140
1.0
141
12.0
290
     0
  0
SCALE
  5
65
102
{ACAD_REACTORS
330
47
102
}
330
47
100
AcDbScale
 70
     0
300
1-1/2" = 1'-0"
140
1.5
141
12.0
290
     0
  0
SCALE
  5
66
102
{ACAD_REACTORS
330
47
102
}
330
47
100
AcDbScale
 70
     0
300
3" = 1'-0"
140
3.0
141
12.0
290
     0
  0
SCALE
  5
67
102
{ACAD_REACTORS
330
47
102
}
330
47
100
AcDbScale
 70
     0
300
6" = 1'-0"
140
6.0
141
12.0
290
     0
  0
SCALE
  5
68
102
{ACAD_REACTORS
330
47
102
}
330
47
100
AcDbScale
 70
     0
300
1'-0" = 1'-0"
140
12.0
141
12.0
290
     0
  0
TABLESTYLE
  5
6A
102
{ACAD_REACTORS
330
69
102
}
330
69
100
AcDbTableStyle
  3
Standard
 70
     0
 71
     0
 40
0.06
 41
0.06
280
     0
281
     0
  7
Standard
140
0.18
170
     2
 62
     0
 63
   257
283
     0
274
    -2
284
     1
 64
     0
275
    -2
285
     1
 65
     0
276
    -2
286
     1
 66
     0
277
    -2
287
     1
 67
     0
278
    -2
288
     1
 68
     0
279
    -2
289
     1
 69
     0
  7
Standard
140
0.25
170
     5
 62
     0
 63
   257
283
     0
274
    -2
284
     1
 64
     0
275
    -2
285
     1
 65
     0
276
    -2
286
     1
 66
     0
277
    -2
287
     1
 67
     0
278
    -2
288
     1
 68
     0
279
    -2
289
     1
 69
     0
  7
Standard
140
0.18
170
     5
 62
     0
 63
   257
283
     0
274
    -2
284
     1
 64
     0
275
    -2
285
     1
 65
     0
276
    -2
286
     1
 66
     0
277
    -2
287
     1
 67
     0
278
    -2
288
     1
 68
     0
279
    -2
289
     1
 69
     0
  0
VISUALSTYLE
  5
2F
102
{ACAD_REACTORS
330
2A
102
}
102
{ACAD_XDICTIONARY
360
352
102
}
330
2A
100
AcDbVisualStyle
  2
2dWireframe
 70
     4
 71
     0
 72
     2
 73
     0
 90
        0
 40
0.6
 41
30.0
 62
     5
 63
     7
 74
     1
 91
        4
 64
     7
 65
   257
 75
     1
175
     1
 42
1.0
 92
        0
 66
   257
 43
1.0
 76
     1
 77
     6
 78
     2
 67
     7
 79
     5
170
     0
171
     0
290
     0
174
     0
 93
        1
 44
0.0
173
     0
291
     0
 45
0.0
1001
ACAD
1000
AcDbSavedByObjectVersion
1070
     0
  0
VISUALSTYLE
  5
32
102
{ACAD_REACTORS
330
2A
102
}
102
{ACAD_XDICTIONARY
360
358
102
}
330
2A
100
AcDbVisualStyle
  2
Basic
 70
     7
 71
     1
 72
     0
 73
     1
 90
        0
 40
0.6
 41
30.0
 62
     5
 63
     7
 74
     0
 91
        4
 64
     7
 65
   257
 75
     1
175
     1
 42
1.0
 92
        8
 66
     7
 43
1.0
 76
     1
 77
     6
 78
     2
 67
     7
 79
     5
170
     0
171
     0
290
     0
174
     0
 93
        1
 44
0.0
173
     0
291
     1
 45
0.0
1001
ACAD
1000
AcDbSavedByObjectVersion
1070
     0
  0
VISUALSTYLE
  5
36
102
{ACAD_REACTORS
330
2A
102
}
102
{ACAD_XDICTIONARY
360
360
102
}
330
2A
100
AcDbVisualStyle
  2
Brighten
 70
    12
 71
     2
 72
     2
 73
     0
 90
        0
 40
0.6
 41
30.0
 62
     5
 63
     7
 74
     1
 91
        4
 64
     7
 65
   257
 75
     1
175
     1
 42
1.0
 92
        8
 66
     7
 43
1.0
 76
     1
 77
     6
 78
     2
 67
     7
 79
     5
170
     0
171
     0
290
     0
174
     0
 93
        1
 44
50.0
173
     0
291
     1
 45
0.0
1001
ACAD
1000
AcDbSavedByObjectVersion
1070
     0
  0
VISUALSTYLE
  5
3A
102
{ACAD_REACTORS
330
2A
102
}
102
{ACAD_XDICTIONARY
360
368
102
}
330
2A
100
AcDbVisualStyle
  2
ColorChange
 70
    16
 71
     2
 72
     2
 73
     3
 90
        0
 40
0.6
 41
30.0
 62
     5
 63
     8
 74
     1
 91
        4
 64
     7
 65
   257
 75
     1
175
     1
 42
1.0
 92
        8
 66
     8
 43
1.0
 76
     1
 77
     6
 78
     2
 67
     7
 79
     5
170
     0
171
     0
290
     0
174
     0
 93
        1
 44
0.0
173
     0
291
     1
 45
0.0
1001
ACAD
1000
AcDbSavedByObjectVersion
1070
     0
  0
VISUALSTYLE
  5
34
102
{ACAD_REACTORS
330
2A
102
}
102
{ACAD_XDICTIONARY
360
35C
102
}
330
2A
100
AcDbVisualStyle
  2
Conceptual
 70
     9
 71
     3
 72
     2
 73
     0
 90
        0
 40
0.6
 41
30.0
 62
     5
 63
     7
 74
     2
 91
        2
 64
     7
 65
   257
 75
     1
175
     1
 42
179.0
 92
        8
 66
     7
 43
1.0
 76
     1
 77
     6
 78
     2
 67
     7
 79
     3
170
     0
171
     0
290
     0
174
     0
 93
        1
 44
0.0
173
     0
291
     0
 45
0.0
1001
ACAD
1000
AcDbSavedByObjectVersion
1070
     0
  0
VISUALSTYLE
  5
35
102
{ACAD_REACTORS
330
2A
102
}
102
{ACAD_XDICTIONARY
360
35E
102
}
330
2A
100
AcDbVisualStyle
  2
Dim
 70
    11
 71
     2
 72
     2
 73
     0
 90
        0
 40
0.6
 41
30.0
 62
     5
 63
     7
 74
     1
 91
        4
 64
     7
 65
   257
 75
     1
175
     1
 42
1.0
 92
        8
 66
     7
 43
1.0
 76
     1
 77
     6
 78
     2
 67
     7
 79
     5
170
     0
171
     0
290
     0
174
     0
 93
        1
 44
-50.0
173
     0
291
     1
 45
0.0
1001
ACAD
1000
AcDbSavedByObjectVersion
1070
     0
  0
VISUALSTYLE
  5
3D
102
{ACAD_REACTORS
330
2A
102
}
102
{ACAD_XDICTIONARY
360
36E
102
}
330
2A
100
AcDbVisualStyle
  2
EdgeColorOff
 70
    22
 71
     2
 72
     2
 73
     0
 90
        0
 40
0.6
 41
30.0
 62
     5
 63
     7
 74
     1
 91
        4
 64
     7
 65
   257
 75
     1
175
     1
 42
1.0
 92
        8
 66
     7
 43
1.0
 76
     1
 77
     6
 78
     2
 67
     7
 79
     5
170
     0
171
     0
290
     0
174
     0
 93
        1
 44
0.0
173
     0
291
     1
 45
0.0
1001
ACAD
1000
AcDbSavedByObjectVersion
1070
     0
  0
VISUALSTYLE
  5
39
102
{ACAD_REACTORS
330
2A
102
}
102
{ACAD_XDICTIONARY
360
366
102
}
330
2A
100
AcDbVisualStyle
  2
Facepattern
 70
    15
 71
     2
 72
     2
 73
     0
 90
        0
 40
0.6
 41
30.0
 62
     5
 63
     7
 74
     1
 91
        4
 64
     7
 65
   257
 75
     1
175
     1
 42
1.0
 92
        8
 66
     7
 43
1.0
 76
     1
 77
     6
 78
     2
 67
     7
 79
     5
170
     0
171
     0
290
     0
174
     0
 93
        1
 44
0.0
173
     0
291
     1
 45
0.0
1001
ACAD
1000
AcDbSavedByObjectVersion
1070
     0
  0
VISUALSTYLE
  5
2B
102
{ACAD_REACTORS
330
2A
102
}
102
{ACAD_XDICTIONARY
360
34A
102
}
330
2A
100
AcDbVisualStyle
  2
Flat
 70
     0
 71
     2
 72
     1
 73
     1
 90
        2
 40
0.6
 41
30.0
 62
     5
 63
     7
 74
     0
 91
        0
 64
     7
 65
   257
 75
     1
175
     1
 42
1.0
 92
        8
 66
     7
 43
1.0
 76
     1
 77
     6
 78
     2
 67
     7
 79
     5
170
     0
171
     0
290
     0
174
     0
 93
       13
 44
0.0
173
     0
291
     1
 45
0.0
1001
ACAD
1000
AcDbSavedByObjectVersion
1070
     0
  0
VISUALSTYLE
  5
2C
102
{ACAD_REACTORS
330
2A
102
}
102
{ACAD_XDICTIONARY
360
34C
102
}
330
2A
100
AcDbVisualStyle
  2
FlatWithEdges
 70
     1
 71
     2
 72
     1
 73
     1
 90
        2
 40
0.6
 41
30.0
 62
     5
 63
     7
 74
     1
 91
        0
 64
     7
 65
   257
 75
     1
175
     1
 42
1.0
 92
        0
 66
   257
 43
1.0
 76
     1
 77
     6
 78
     2
 67
     7
 79
     5
170
     0
171
     0
290
     0
174
     0
 93
       13
 44
0.0
173
     0
291
     1
 45
0.0
1001
ACAD
1000
AcDbSavedByObjectVersion
1070
     0
  0
VISUALSTYLE
  5
2D
102
{ACAD_REACTORS
330
2A
102
}
102
{ACAD_XDICTIONARY
360
34E
102
}
330
2A
100
AcDbVisualStyle
  2
Gouraud
 70
     2
 71
     2
 72
     2
 73
     1
 90
        2
 40
0.6
 41
30.0
 62
     5
 63
     7
 74
     0
 91
        0
 64
     7
 65
   257
 75
     1
175
     1
 42
1.0
 92
        0
 66
     7
 43
1.0
 76
     1
 77
     6
 78
     2
 67
     7
 79
     5
170
     0
171
     0
290
     0
174
     0
 93
       13
 44
0.0
173
     0
291
     1
 45
0.0
1001
ACAD
1000
AcDbSavedByObjectVersion
1070
     0
  0
VISUALSTYLE
  5
2E
102
{ACAD_REACTORS
330
2A
102
}
102
{ACAD_XDICTIONARY
360
350
102
}
330
2A
100
AcDbVisualStyle
  2
GouraudWithEdges
 70
     3
 71
     2
 72
     2
 73
     1
 90
        2
 40
0.6
 41
30.0
 62
     5
 63
     7
 74
     1
 91
        0
 64
     7
 65
   257
 75
     1
175
     1
 42
1.0
 92
        0
 66
   257
 43
1.0
 76
     1
 77
     6
 78
     2
 67
     7
 79
     5
170
     0
171
     0
290
     0
174
     0
 93
       13
 44
0.0
173
     0
291
     1
 45
0.0
1001
ACAD
1000
AcDbSavedByObjectVersion
1070
     0
  0
VISUALSTYLE
  5
31
102
{ACAD_REACTORS
330
2A
102
}
102
{ACAD_XDICTIONARY
360
356
102
}
330
2A
100
AcDbVisualStyle
  2
Hidden
 70
     6
 71
     1
 72
     2
 73
     2
 90
        0
 40
0.6
 41
30.0
 62
     5
 63
     7
 74
     2
 91
        2
 64
     7
 65
   257
 75
     2
175
     1
 42
40.0
 92
        0
 66
   257
 43
1.0
 76
     1
 77
     6
 78
     2
 67
     7
 79
     3
170
     0
171
     0
290
     0
174
     0
 93
        1
 44
0.0
173
     0
291
     0
 45
0.0
1001
ACAD
1000
AcDbSavedByObjectVersion
1070
     0
  0
VISUALSTYLE
  5
3B
102
{ACAD_REACTORS
330
2A
102
}
102
{ACAD_XDICTIONARY
360
36A
102
}
330
2A
100
AcDbVisualStyle
  2
JitterOff
 70
    20
 71
     2
 72
     2
 73
     0
 90
        0
 40
0.6
 41
30.0
 62
     5
 63
     7
 74
     1
 91
        4
 64
     7
 65
   257
 75
     1
175
     1
 42
1.0
 92
       10
 66
     7
 43
1.0
 76
     1
 77
     6
 78
     2
 67
     7
 79
     5
170
     0
171
     0
290
     0
174
     0
 93
        1
 44
0.0
173
     0
291
     1
 45
0.0
1001
ACAD
1000
AcDbSavedByObjectVersion
1070
     0
  0
VISUALSTYLE
  5
38
102
{ACAD_REACTORS
330
2A
102
}
102
{ACAD_XDICTIONARY
360
364
102
}
330
2A
100
AcDbVisualStyle
  2
Linepattern
 70
    14
 71
     2
 72
     2
 73
     0
 90
        0
 40
0.6
 41
30.0
 62
     5
 63
     7
 74
     1
 91
        4
 64
     7
 65
   257
 75
     7
175
     7
 42
1.0
 92
        8
 66
     7
 43
1.0
 76
     1
 77
     6
 78
     2
 67
     7
 79
     5
170
     0
171
     0
290
     0
174
     0
 93
        1
 44
0.0
173
     0
291
     1
 45
0.0
1001
ACAD
1000
AcDbSavedByObjectVersion
1070
     0
  0
VISUALSTYLE
  5
3C
102
{ACAD_REACTORS
330
2A
102
}
102
{ACAD_XDICTIONARY
360
36C
102
}
330
2A
100
AcDbVisualStyle
  2
OverhangOff
 70
    21
 71
     2
 72
     2
 73
     0
 90
        0
 40
0.6
 41
30.0
 62
     5
 63
     7
 74
     1
 91
        4
 64
     7
 65
   257
 75
     1
175
     1
 42
1.0
 92
        9
 66
     7
 43
1.0
 76
     1
 77
     6
 78
     2
 67
     7
 79
     5
170
     0
171
     0
290
     0
174
     0
 93
        1
 44
0.0
173
     0
291
     1
 45
0.0
1001
ACAD
1000
AcDbSavedByObjectVersion
1070
     0
  0
VISUALSTYLE
  5
33
102
{ACAD_REACTORS
330
2A
102
}
102
{ACAD_XDICTIONARY
360
35A
102
}
330
2A
100
AcDbVisualStyle
  2
Realistic
 70
     8
 71
     2
 72
     3
 73
     0
 90
        2
 40
0.6
 41
30.0
 62
     5
 63
     7
 74
     0
 91
        0
 64
     7
 65
   257
 75
     1
175
     1
 42
1.0
 92
        8
 66
   257
 43
1.0
 76
     1
 77
     6
 78
     2
 67
     7
 79
     3
170
     0
171
     0
290
     0
174
     0
 93
       13
 44
0.0
173
     0
291
     0
 45
0.0
1001
ACAD
1000
AcDbSavedByObjectVersion
1070
     0
  0
VISUALSTYLE
  5
42
102
{ACAD_REACTORS
330
2A
102
}
102
{ACAD_XDICTIONARY
360
378
102
}
330
2A
100
AcDbVisualStyle
  2
Shaded
 70
    27
 71
     2
 72
     2
 73
     1
 90
        2
 40
0.6
 41
30.0
 62
     5
 63
     7
 74
     0
 91
        4
 64
     7
 65
   257
 75
     1
175
     1
 42
1.0
 92
        8
 66
   257
 43
1.0
 76
     1
 77
     6
 78
     2
 67
     8
 79
     3
170
     0
171
     0
290
     0
174
     0
 93
        5
 44
0.0
173
     0
291
     0
 45
0.0
1001
ACAD
1000
AcDbSavedByObjectVersion
1070
     0
  0
VISUALSTYLE
  5
41
102
{ACAD_REACTORS
330
2A
102
}
102
{ACAD_XDICTIONARY
360
376
102
}
330
2A
100
AcDbVisualStyle
  2
Shaded with edges
 70
    26
 71
     2
 72
     2
 73
     1
 90
        2
 40
0.6
 41
30.0
 62
     5
 63
     7
 74
     1
 91
       10
 64
     7
 65
   257
 75
     2
175
     1
 42
1.0
 92
        8
 66
   257
 43
1.0
 76
     1
 77
     6
 78
     2
 67
     7
 79
     3
170
     0
171
     0
290
     0
174
     0
 93
        5
 44
0.0
173
     0
291
     0
 45
0.0
1001
ACAD
1000
AcDbSavedByObjectVersion
1070
     0
  0
VISUALSTYLE
  5
3E
102
{ACAD_REACTORS
330
2A
102
}
102
{ACAD_XDICTIONARY
360
370
102
}
330
2A
100
AcDbVisualStyle
  2
Shades of Gray
 70
    23
 71
     2
 72
     2
 73
     3
 90
        0
 40
0.6
 41
30.0
 62
     5
 63
     7
 74
     2
 91
        2
 64
     7
 65
     7
 75
     1
175
     1
 42
40.0
 92
        8
 66
     7
 43
1.0
 76
     1
 77
     6
 78
     2
 67
     7
 79
     3
170
     0
171
     0
290
     0
174
     0
 93
        1
 44
0.0
173
     0
291
     0
 45
0.0
1001
ACAD
1000
AcDbSavedByObjectVersion
1070
     0
  0
VISUALSTYLE
  5
3F
102
{ACAD_REACTORS
330
2A
102
}
102
{ACAD_XDICTIONARY
360
372
102
}
330
2A
100
AcDbVisualStyle
  2
Sketchy
 70
    24
 71
     1
 72
     2
 73
     2
 90
        0
 40
0.6
 41
30.0
 62
     5
 63
     7
 74
     2
 91
        2
 64
     7
 65
     7
 75
     1
175
     1
 42
40.0
 92
       11
 66
     7
 43
1.0
 76
     1
 77
     6
 78
     2
 67
     7
 79
     6
170
     0
171
     0
290
     0
174
     0
 93
        1
 44
0.0
173
     0
291
     0
 45
0.0
1001
ACAD
1000
AcDbSavedByObjectVersion
1070
     0
  0
VISUALSTYLE
  5
37
102
{ACAD_REACTORS
330
2A
102
}
102
{ACAD_XDICTIONARY
360
362
102
}
330
2A
100
AcDbVisualStyle
  2
Thicken
 70
    13
 71
     2
 72
     2
 73
     0
 90
        0
 40
0.6
 41
30.0
 62
     5
 63
     7
 74
     1
 91
        4
 64
     7
 65
   257
 75
     1
175
     1
 42
1.0
 92
       12
 66
     7
 43
1.0
 76
     1
 77
     6
 78
     2
 67
     7
 79
     5
170
     0
171
     0
290
     0
174
     0
 93
        1
 44
0.0
173
     0
291
     1
 45
0.0
1001
ACAD
1000
AcDbSavedByObjectVersion
1070
     0
  0
VISUALSTYLE
  5
30
102
{ACAD_REACTORS
330
2A
102
}
102
{ACAD_XDICTIONARY
360
354
102
}
330
2A
100
AcDbVisualStyle
  2
Wireframe
 70
     5
 71
     0
 72
     2
 73
     0
 90
        0
 40
0.6
 41
30.0
 62
     5
 63
     7
 74
     1
 91
        4
 64
     7
 65
   257
 75
     1
175
     1
 42
1.0
 92
        0
 66
   257
 43
1.0
 76
     1
 77
     6
 78
     2
 67
     7
 79
     3
170
     0
171
     0
290
     0
174
     0
 93
        1
 44
0.0
173
     0
291
     0
 45
0.0
1001
ACAD
1000
AcDbSavedByObjectVersion
1070
     0
  0
VISUALSTYLE
  5
40
102
{ACAD_REACTORS
330
2A
102
}
102
{ACAD_XDICTIONARY
360
374
102
}
330
2A
100
AcDbVisualStyle
  2
X-Ray
 70
    25
 71
     2
 72
     2
 73
     1
 90
        1
 40
0.5
 41
30.0
 62
     5
 63
     7
 74
     1
 91
        0
 64
     7
 65
   257
 75
     1
175
     1
 42
1.0
 92
        8
 66
     7
 43
1.0
 76
     1
 77
     6
 78
     2
 67
     7
 79
     3
170
     0
171
     0
290
     0
174
     0
 93
       13
 44
0.0
173
     0
291
     0
 45
0.0
1001
ACAD
1000
AcDbSavedByObjectVersion
1070
     0
  0
DICTIONARYVAR
  5
348
102
{ACAD_REACTORS
330
33C
102
}
330
33C
100
DictionaryVariables
280
     0
  1
1:1
  0
DICTIONARYVAR
  5
33E
102
{ACAD_REACTORS
330
33C
102
}
330
33C
100
DictionaryVariables
280
     0
  1
Standard
  0
DICTIONARYVAR
  5
33D
102
{ACAD_REACTORS
330
33C
102
}
330
33C
100
DictionaryVariables
280
     0
  1
Standard
  0
DICTIONARYVAR
  5
341
102
{ACAD_REACTORS
330
33C
102
}
330
33C
100
DictionaryVariables
280
     0
  1
2
  0
DICTIONARYVAR
  5
342
102
{ACAD_REACTORS
330
33C
102
}
330
33C
100
DictionaryVariables
280
     0
  1
1
  0
DICTIONARYVAR
  5
349
102
{ACAD_REACTORS
330
33C
102
}
330
33C
100
DictionaryVariables
280
     0
  1
1
  0
DICTIONARY
  5
37C
330
45
100
AcDbDictionary
280
     1
281
     1
  3
ACAD_XREC_ROUNDTRIP
360
37D
  0
DICTIONARY
  5
37A
330
44
100
AcDbDictionary
280
     1
281
     1
  3
ACAD_XREC_ROUNDTRIP
360
37B
  0
DICTIONARY
  5
37E
330
46
100
AcDbDictionary
280
     1
281
     1
  3
ACAD_XREC_ROUNDTRIP
360
37F
  0
DICTIONARY
  5
381
330
6C
100
AcDbDictionary
280
     1
281
     1
  3
ACAD_XREC_ROUNDTRIP
360
382
  0
DICTIONARY
  5
352
330
2F
100
AcDbDictionary
280
     1
281
     1
  3
ACAD_XREC_ROUNDTRIP
360
353
  0
DICTIONARY
  5
358
330
32
100
AcDbDictionary
280
     1
281
     1
  3
ACAD_XREC_ROUNDTRIP
360
359
  0
DICTIONARY
  5
360
330
36
100
AcDbDictionary
280
     1
281
     1
  3
ACAD_XREC_ROUNDTRIP
360
361
  0
DICTIONARY
  5
368
330
3A
100
AcDbDictionary
280
     1
281
     1
  3
ACAD_XREC_ROUNDTRIP
360
369
  0
DICTIONARY
  5
35C
330
34
100
AcDbDictionary
280
     1
281
     1
  3
ACAD_XREC_ROUNDTRIP
360
35D
  0
DICTIONARY
  5
35E
330
35
100
AcDbDictionary
280
     1
281
     1
  3
ACAD_XREC_ROUNDTRIP
360
35F
  0
DICTIONARY
  5
36E
330
3D
100
AcDbDictionary
280
     1
281
     1
  3
ACAD_XREC_ROUNDTRIP
360
36F
  0
DICTIONARY
  5
366
330
39
100
AcDbDictionary
280
     1
281
     1
  3
ACAD_XREC_ROUNDTRIP
360
367
  0
DICTIONARY
  5
34A
330
2B
100
AcDbDictionary
280
     1
281
     1
  3
ACAD_XREC_ROUNDTRIP
360
34B
  0
DICTIONARY
  5
34C
330
2C
100
AcDbDictionary
280
     1
281
     1
  3
ACAD_XREC_ROUNDTRIP
360
34D
  0
DICTIONARY
  5
34E
330
2D
100
AcDbDictionary
280
     1
281
     1
  3
ACAD_XREC_ROUNDTRIP
360
34F
  0
DICTIONARY
  5
350
330
2E
100
AcDbDictionary
280
     1
281
     1
  3
ACAD_XREC_ROUNDTRIP
360
351
  0
DICTIONARY
  5
356
330
31
100
AcDbDictionary
280
     1
281
     1
  3
ACAD_XREC_ROUNDTRIP
360
357
  0
DICTIONARY
  5
36A
330
3B
100
AcDbDictionary
280
     1
281
     1
  3
ACAD_XREC_ROUNDTRIP
360
36B
  0
DICTIONARY
  5
364
330
38
100
AcDbDictionary
280
     1
281
     1
  3
ACAD_XREC_ROUNDTRIP
360
365
  0
DICTIONARY
  5
36C
330
3C
100
AcDbDictionary
280
     1
281
     1
  3
ACAD_XREC_ROUNDTRIP
360
36D
  0
DICTIONARY
  5
35A
330
33
100
AcDbDictionary
280
     1
281
     1
  3
ACAD_XREC_ROUNDTRIP
360
35B
  0
DICTIONARY
  5
378
330
42
100
AcDbDictionary
280
     1
281
     1
  3
ACAD_XREC_ROUNDTRIP
360
379
  0
DICTIONARY
  5
376
330
41
100
AcDbDictionary
280
     1
281
     1
  3
ACAD_XREC_ROUNDTRIP
360
377
  0
DICTIONARY
  5
370
330
3E
100
AcDbDictionary
280
     1
281
     1
  3
ACAD_XREC_ROUNDTRIP
360
371
  0
DICTIONARY
  5
372
330
3F
100
AcDbDictionary
280
     1
281
     1
  3
ACAD_XREC_ROUNDTRIP
360
373
  0
DICTIONARY
  5
362
330
37
100
AcDbDictionary
280
     1
281
     1
  3
ACAD_XREC_ROUNDTRIP
360
363
  0
DICTIONARY
  5
354
330
30
100
AcDbDictionary
280
     1
281
     1
  3
ACAD_XREC_ROUNDTRIP
360
355
  0
DICTIONARY
  5
374
330
40
100
AcDbDictionary
280
     1
281
     1
  3
ACAD_XREC_ROUNDTRIP
360
375
  0
XRECORD
  5
37D
102
{ACAD_REACTORS
330
37C
102
}
330
37C
100
AcDbXrecord
280
     1
102
MATERIAL
148
0.0
149
0.0
149
0.0
 93
        0
 94
      127
282
     0
 72
     1
 77
     1
171
     1
175
     1
179
     1
273
     0
  0
XRECORD
  5
37B
102
{ACAD_REACTORS
330
37A
102
}
330
37A
100
AcDbXrecord
280
     1
102
MATERIAL
148
0.0
149
0.0
149
0.0
 93
        0
 94
      127
282
     0
 72
     1
 77
     1
171
     1
175
     1
179
     1
273
     0
  0
XRECORD
  5
37F
102
{ACAD_REACTORS
330
37E
102
}
330
37E
100
AcDbXrecord
280
     1
102
MATERIAL
148
0.0
149
0.0
149
0.0
 93
        0
 94
      127
282
     0
 72
     1
 77
     1
171
     1
175
     1
179
     1
273
     0
  0
XRECORD
  5
382
102
{ACAD_REACTORS
330
381
102
}
330
381
100
AcDbXrecord
280
     1
102
ACAD_ROUNDTRIP_2010_MLEADER_STYLE
  0
XRECORD
  5
353
102
{ACAD_REACTORS
330
352
102
}
330
352
100
AcDbXrecord
280
     1
102
RTVSPropertyOp0
 70
     1
102
RTVSPropertyOp1
 70
     1
102
RTVSPropertyOp2
 70
     1
102
RTVSPropertyOp3
 70
     1
102
RTVSPropertyOp4
 70
     1
102
RTVSPropertyOp5
 70
     1
102
RTVSPropertyOp6
 70
     1
102
RTVSPropertyOp7
 70
     1
102
RTVSPropertyOp8
 70
     1
102
RTVSPropertyOp9
 70
     1
102
RTVSPropertyOp10
 70
     1
102
RTVSPropertyOp11
 70
     1
102
RTVSPropertyOp12
 70
     1
102
RTVSPropertyOp13
 70
     1
102
RTVSPropertyOp14
 70
     1
102
RTVSPropertyOp15
 70
     1
102
RTVSPropertyOp16
 70
     1
102
RTVSPropertyOp17
 70
     1
102
RTVSPropertyOp18
 70
     1
102
RTVSPropertyOp19
 70
     1
102
RTVSPropertyOp20
 70
     1
102
RTVSPropertyOp21
 70
     1
102
RTVSPropertyOp22
 70
     1
102
RTVSPropertyOp23
 70
     1
102
RTVSPropertyOp24
 70
     1
102
RTVSPropertyOp25
 70
     1
102
RTVSPropertyOp26
 70
     1
102
RTVSPropertyOp27
 70
     1
102
RTVSPropertyOp28
 70
     1
102
RTVSPropertyOp29
 70
     1
102
RTVSPropertyOp30
 70
     1
102
RTVSPropertyOp31
 70
     1
102
RTVSPropertyOp32
 70
     1
102
RTVSPropertyOp33
 70
     1
102
RTVSPropertyOp34
 70
     1
102
RTVSPropertyOp35
 70
     1
102
RTVSPropertyOp36
 70
     1
102
RTVSPropertyOp37
 70
     1
102
RTVSPropertyOp38
 70
     1
102
RTVSPropertyOp39
 70
     1
102
RTVSPropertyOp40
 70
     1
102
RTVSPropertyOp41
 70
     1
102
RTVSPropertyOp42
 70
     1
102
RTVSPropertyOp43
 70
     1
102
RTVSPropertyOp44
 70
     1
102
RTVSPropertyOp45
 70
     1
102
RTVSPropertyOp46
 70
     1
102
RTVSPropertyOp47
 70
     1
102
RTVSPropertyOp48
 70
     1
102
RTVSPropertyOp49
 70
     1
102
RTVSPropertyOp50
 70
     1
102
RTVSPropertyOp51
 70
     0
102
RTVSPropertyOp52
 70
     0
102
RTVSPropertyOp53
 70
     1
102
RTVSPropertyOp54
 70
     1
102
RTVSPropertyOp55
 70
     1
102
RTVSPropertyOp56
 70
     1
102
RTVSPropertyOp57
 70
     1
102
RTVSPost2010Prop28
280
     1
102
RTVSPost2010PropOp28
 70
     1
102
RTVSPost2010Prop29
280
     1
102
RTVSPost2010PropOp29
 70
     1
102
RTVSPost2010Prop30
280
     0
102
RTVSPost2010PropOp30
 70
     1
102
RTVSPost2010Prop31
280
     0
102
RTVSPost2010PropOp31
 70
     1
102
RTVSPost2010Prop32
280
     0
102
RTVSPost2010PropOp32
 70
     1
102
RTVSPost2010Prop33
280
     0
102
RTVSPost2010PropOp33
 70
     1
102
RTVSPost2010Prop34
280
     0
102
RTVSPost2010PropOp34
 70
     1
102
RTVSPost2010Prop35
280
     0
102
RTVSPost2010PropOp35
 70
     1
102
RTVSPost2010Prop36
280
     0
102
RTVSPost2010PropOp36
 70
     1
102
RTVSPost2010Prop37
 90
       50
102
RTVSPost2010PropOp37
 70
     1
102
RTVSPost2010Prop38
140
0.0
102
RTVSPost2010PropOp38
 70
     1
102
RTVSPost2010Prop39
140
1.0
102
RTVSPost2010PropOp39
 70
     1
102
RTVSPost2010Prop40
 90
        0
102
RTVSPost2010PropOp40
 70
     1
102
RTVSPost2010Prop41ColorIndex
 90
       18
102
RTVSPost2010Prop41ColorRGB
 90
        0
102
RTVSPost2010PropOp41
 70
     1
102
RTVSPost2010Prop42
 90
       50
102
RTVSPost2010PropOp42
 70
     1
102
RTVSPost2010Prop43
 90
        3
102
RTVSPost2010PropOp43
 70
     1
102
RTVSPost2010Prop44ColorIndex
 90
        5
102
RTVSPost2010Prop44ColorRGB
 90
      255
102
RTVSPost2010PropOp44
 70
     1
102
RTVSPost2010Prop45
280
     0
102
RTVSPost2010PropOp45
 70
     1
102
RTVSPost2010Prop46
 90
       50
102
RTVSPost2010PropOp46
 70
     1
102
RTVSPost2010Prop47
 90
       50
102
RTVSPost2010PropOp47
 70
     1
102
RTVSPost2010Prop48
 90
       50
102
RTVSPost2010PropOp48
 70
     1
102
RTVSPost2010Prop49
280
     0
102
RTVSPost2010PropOp49
 70
     1
102
RTVSPost2010Prop50
 90
       50
102
RTVSPost2010PropOp50
 70
     1
102
RTVSPost2010Prop51ColorIndex
 90
      256
102
RTVSPost2010Prop51ColorRGB
 90
-16777216
102
RTVSPost2010PropOp51
 70
     0
102
RTVSPost2010Prop52
140
1.0
102
RTVSPost2010PropOp52
 70
     0
102
RTVSPost2010Prop53
 90
        2
102
RTVSPost2010PropOp53
 70
     1
102
RTVSPost2010Prop54
  1
strokes_ogs.tif
102
RTVSPost2010PropOp54
 70
     1
102
RTVSPost2010Prop55
280
     0
102
RTVSPost2010PropOp55
 70
     1
102
RTVSPost2010Prop56
140
1.0
102
RTVSPost2010PropOp56
 70
     1
102
RTVSPost2010Prop57
140
1.0
102
RTVSPost2010PropOp57
 70
     1
  0
XRECORD
  5
359
102
{ACAD_REACTORS
330
358
102
}
330
358
100
AcDbXrecord
280
     1
102
RTVSPropertyOp0
 70
     1
102
RTVSPropertyOp1
 70
     1
102
RTVSPropertyOp2
 70
     1
102
RTVSPropertyOp3
 70
     1
102
RTVSPropertyOp4
 70
     1
102
RTVSPropertyOp5
 70
     1
102
RTVSPropertyOp6
 70
     1
102
RTVSPropertyOp7
 70
     1
102
RTVSPropertyOp8
 70
     1
102
RTVSPropertyOp9
 70
     1
102
RTVSPropertyOp10
 70
     1
102
RTVSPropertyOp11
 70
     1
102
RTVSPropertyOp12
 70
     1
102
RTVSPropertyOp13
 70
     1
102
RTVSPropertyOp14
 70
     1
102
RTVSPropertyOp15
 70
     1
102
RTVSPropertyOp16
 70
     1
102
RTVSPropertyOp17
 70
     1
102
RTVSPropertyOp18
 70
     1
102
RTVSPropertyOp19
 70
     1
102
RTVSPropertyOp20
 70
     1
102
RTVSPropertyOp21
 70
     1
102
RTVSPropertyOp22
 70
     1
102
RTVSPropertyOp23
 70
     1
102
RTVSPropertyOp24
 70
     1
102
RTVSPropertyOp25
 70
     1
102
RTVSPropertyOp26
 70
     1
102
RTVSPropertyOp27
 70
     1
102
RTVSPropertyOp28
 70
     1
102
RTVSPropertyOp29
 70
     1
102
RTVSPropertyOp30
 70
     1
102
RTVSPropertyOp31
 70
     1
102
RTVSPropertyOp32
 70
     1
102
RTVSPropertyOp33
 70
     1
102
RTVSPropertyOp34
 70
     1
102
RTVSPropertyOp35
 70
     1
102
RTVSPropertyOp36
 70
     1
102
RTVSPropertyOp37
 70
     1
102
RTVSPropertyOp38
 70
     1
102
RTVSPropertyOp39
 70
     1
102
RTVSPropertyOp40
 70
     1
102
RTVSPropertyOp41
 70
     1
102
RTVSPropertyOp42
 70
     1
102
RTVSPropertyOp43
 70
     1
102
RTVSPropertyOp44
 70
     1
102
RTVSPropertyOp45
 70
     1
102
RTVSPropertyOp46
 70
     1
102
RTVSPropertyOp47
 70
     1
102
RTVSPropertyOp48
 70
     1
102
RTVSPropertyOp49
 70
     1
102
RTVSPropertyOp50
 70
     1
102
RTVSPropertyOp51
 70
     0
102
RTVSPropertyOp52
 70
     0
102
RTVSPropertyOp53
 70
     1
102
RTVSPropertyOp54
 70
     1
102
RTVSPropertyOp55
 70
     1
102
RTVSPropertyOp56
 70
     1
102
RTVSPropertyOp57
 70
     1
102
RTVSPost2010Prop28
280
     0
102
RTVSPost2010PropOp28
 70
     1
102
RTVSPost2010Prop29
280
     1
102
RTVSPost2010PropOp29
 70
     1
102
RTVSPost2010Prop30
280
     1
102
RTVSPost2010PropOp30
 70
     1
102
RTVSPost2010Prop31
280
     0
102
RTVSPost2010PropOp31
 70
     1
102
RTVSPost2010Prop32
280
     0
102
RTVSPost2010PropOp32
 70
     1
102
RTVSPost2010Prop33
280
     0
102
RTVSPost2010PropOp33
 70
     1
102
RTVSPost2010Prop34
280
     0
102
RTVSPost2010PropOp34
 70
     1
102
RTVSPost2010Prop35
280
     0
102
RTVSPost2010PropOp35
 70
     1
102
RTVSPost2010Prop36
280
     0
102
RTVSPost2010PropOp36
 70
     1
102
RTVSPost2010Prop37
 90
       50
102
RTVSPost2010PropOp37
 70
     1
102
RTVSPost2010Prop38
140
0.0
102
RTVSPost2010PropOp38
 70
     1
102
RTVSPost2010Prop39
140
1.0
102
RTVSPost2010PropOp39
 70
     1
102
RTVSPost2010Prop40
 90
        0
102
RTVSPost2010PropOp40
 70
     1
102
RTVSPost2010Prop41ColorIndex
 90
       18
102
RTVSPost2010Prop41ColorRGB
 90
        0
102
RTVSPost2010PropOp41
 70
     1
102
RTVSPost2010Prop42
 90
       50
102
RTVSPost2010PropOp42
 70
     1
102
RTVSPost2010Prop43
 90
        3
102
RTVSPost2010PropOp43
 70
     1
102
RTVSPost2010Prop44ColorIndex
 90
        5
102
RTVSPost2010Prop44ColorRGB
 90
      255
102
RTVSPost2010PropOp44
 70
     1
102
RTVSPost2010Prop45
280
     0
102
RTVSPost2010PropOp45
 70
     1
102
RTVSPost2010Prop46
 90
       50
102
RTVSPost2010PropOp46
 70
     1
102
RTVSPost2010Prop47
 90
       50
102
RTVSPost2010PropOp47
 70
     1
102
RTVSPost2010Prop48
 90
       50
102
RTVSPost2010PropOp48
 70
     1
102
RTVSPost2010Prop49
280
     0
102
RTVSPost2010PropOp49
 70
     1
102
RTVSPost2010Prop50
 90
       50
102
RTVSPost2010PropOp50
 70
     1
102
RTVSPost2010Prop51ColorIndex
 90
      256
102
RTVSPost2010Prop51ColorRGB
 90
-16777216
102
RTVSPost2010PropOp51
 70
     0
102
RTVSPost2010Prop52
140
1.0
102
RTVSPost2010PropOp52
 70
     0
102
RTVSPost2010Prop53
 90
        2
102
RTVSPost2010PropOp53
 70
     1
102
RTVSPost2010Prop54
  1
strokes_ogs.tif
102
RTVSPost2010PropOp54
 70
     1
102
RTVSPost2010Prop55
280
     0
102
RTVSPost2010PropOp55
 70
     1
102
RTVSPost2010Prop56
140
1.0
102
RTVSPost2010PropOp56
 70
     1
102
RTVSPost2010Prop57
140
1.0
102
RTVSPost2010PropOp57
 70
     1
  0
XRECORD
  5
361
102
{ACAD_REACTORS
330
360
102
}
330
360
100
AcDbXrecord
280
     1
102
RTVSPropertyOp0
 70
     1
102
RTVSPropertyOp1
 70
     1
102
RTVSPropertyOp2
 70
     1
102
RTVSPropertyOp3
 70
     1
102
RTVSPropertyOp4
 70
     1
102
RTVSPropertyOp5
 70
     1
102
RTVSPropertyOp6
 70
     1
102
RTVSPropertyOp7
 70
     1
102
RTVSPropertyOp8
 70
     1
102
RTVSPropertyOp9
 70
     1
102
RTVSPropertyOp10
 70
     1
102
RTVSPropertyOp11
 70
     1
102
RTVSPropertyOp12
 70
     1
102
RTVSPropertyOp13
 70
     1
102
RTVSPropertyOp14
 70
     1
102
RTVSPropertyOp15
 70
     1
102
RTVSPropertyOp16
 70
     1
102
RTVSPropertyOp17
 70
     1
102
RTVSPropertyOp18
 70
     1
102
RTVSPropertyOp19
 70
     1
102
RTVSPropertyOp20
 70
     1
102
RTVSPropertyOp21
 70
     1
102
RTVSPropertyOp22
 70
     1
102
RTVSPropertyOp23
 70
     1
102
RTVSPropertyOp24
 70
     1
102
RTVSPropertyOp25
 70
     1
102
RTVSPropertyOp26
 70
     1
102
RTVSPropertyOp27
 70
     1
102
RTVSPropertyOp28
 70
     1
102
RTVSPropertyOp29
 70
     1
102
RTVSPropertyOp30
 70
     1
102
RTVSPropertyOp31
 70
     1
102
RTVSPropertyOp32
 70
     1
102
RTVSPropertyOp33
 70
     1
102
RTVSPropertyOp34
 70
     1
102
RTVSPropertyOp35
 70
     1
102
RTVSPropertyOp36
 70
     1
102
RTVSPropertyOp37
 70
     1
102
RTVSPropertyOp38
 70
     1
102
RTVSPropertyOp39
 70
     1
102
RTVSPropertyOp40
 70
     1
102
RTVSPropertyOp41
 70
     1
102
RTVSPropertyOp42
 70
     1
102
RTVSPropertyOp43
 70
     1
102
RTVSPropertyOp44
 70
     1
102
RTVSPropertyOp45
 70
     1
102
RTVSPropertyOp46
 70
     1
102
RTVSPropertyOp47
 70
     1
102
RTVSPropertyOp48
 70
     1
102
RTVSPropertyOp49
 70
     1
102
RTVSPropertyOp50
 70
     1
102
RTVSPropertyOp51
 70
     0
102
RTVSPropertyOp52
 70
     0
102
RTVSPropertyOp53
 70
     1
102
RTVSPropertyOp54
 70
     1
102
RTVSPropertyOp55
 70
     1
102
RTVSPropertyOp56
 70
     1
102
RTVSPropertyOp57
 70
     1
102
RTVSPost2010Prop28
280
     0
102
RTVSPost2010PropOp28
 70
     1
102
RTVSPost2010Prop29
280
     1
102
RTVSPost2010PropOp29
 70
     1
102
RTVSPost2010Prop30
280
     1
102
RTVSPost2010PropOp30
 70
     1
102
RTVSPost2010Prop31
280
     0
102
RTVSPost2010PropOp31
 70
     1
102
RTVSPost2010Prop32
280
     0
102
RTVSPost2010PropOp32
 70
     1
102
RTVSPost2010Prop33
280
     0
102
RTVSPost2010PropOp33
 70
     1
102
RTVSPost2010Prop34
280
     0
102
RTVSPost2010PropOp34
 70
     1
102
RTVSPost2010Prop35
280
     0
102
RTVSPost2010PropOp35
 70
     1
102
RTVSPost2010Prop36
280
     0
102
RTVSPost2010PropOp36
 70
     1
102
RTVSPost2010Prop37
 90
       50
102
RTVSPost2010PropOp37
 70
     1
102
RTVSPost2010Prop38
140
0.0
102
RTVSPost2010PropOp38
 70
     1
102
RTVSPost2010Prop39
140
1.0
102
RTVSPost2010PropOp39
 70
     1
102
RTVSPost2010Prop40
 90
        0
102
RTVSPost2010PropOp40
 70
     1
102
RTVSPost2010Prop41ColorIndex
 90
       18
102
RTVSPost2010Prop41ColorRGB
 90
        0
102
RTVSPost2010PropOp41
 70
     1
102
RTVSPost2010Prop42
 90
       50
102
RTVSPost2010PropOp42
 70
     1
102
RTVSPost2010Prop43
 90
        3
102
RTVSPost2010PropOp43
 70
     1
102
RTVSPost2010Prop44ColorIndex
 90
        5
102
RTVSPost2010Prop44ColorRGB
 90
      255
102
RTVSPost2010PropOp44
 70
     1
102
RTVSPost2010Prop45
280
     0
102
RTVSPost2010PropOp45
 70
     1
102
RTVSPost2010Prop46
 90
       50
102
RTVSPost2010PropOp46
 70
     1
102
RTVSPost2010Prop47
 90
       50
102
RTVSPost2010PropOp47
 70
     1
102
RTVSPost2010Prop48
 90
       50
102
RTVSPost2010PropOp48
 70
     1
102
RTVSPost2010Prop49
280
     0
102
RTVSPost2010PropOp49
 70
     1
102
RTVSPost2010Prop50
 90
       50
102
RTVSPost2010PropOp50
 70
     1
102
RTVSPost2010Prop51ColorIndex
 90
      256
102
RTVSPost2010Prop51ColorRGB
 90
-16777216
102
RTVSPost2010PropOp51
 70
     0
102
RTVSPost2010Prop52
140
1.0
102
RTVSPost2010PropOp52
 70
     0
102
RTVSPost2010Prop53
 90
        2
102
RTVSPost2010PropOp53
 70
     1
102
RTVSPost2010Prop54
  1
strokes_ogs.tif
102
RTVSPost2010PropOp54
 70
     1
102
RTVSPost2010Prop55
280
     0
102
RTVSPost2010PropOp55
 70
     1
102
RTVSPost2010Prop56
140
1.0
102
RTVSPost2010PropOp56
 70
     1
102
RTVSPost2010Prop57
140
1.0
102
RTVSPost2010PropOp57
 70
     1
  0
XRECORD
  5
369
102
{ACAD_REACTORS
330
368
102
}
330
368
100
AcDbXrecord
280
     1
102
RTVSPropertyOp0
 70
     1
102
RTVSPropertyOp1
 70
     1
102
RTVSPropertyOp2
 70
     1
102
RTVSPropertyOp3
 70
     1
102
RTVSPropertyOp4
 70
     1
102
RTVSPropertyOp5
 70
     1
102
RTVSPropertyOp6
 70
     1
102
RTVSPropertyOp7
 70
     1
102
RTVSPropertyOp8
 70
     1
102
RTVSPropertyOp9
 70
     1
102
RTVSPropertyOp10
 70
     1
102
RTVSPropertyOp11
 70
     1
102
RTVSPropertyOp12
 70
     1
102
RTVSPropertyOp13
 70
     1
102
RTVSPropertyOp14
 70
     1
102
RTVSPropertyOp15
 70
     1
102
RTVSPropertyOp16
 70
     1
102
RTVSPropertyOp17
 70
     1
102
RTVSPropertyOp18
 70
     1
102
RTVSPropertyOp19
 70
     1
102
RTVSPropertyOp20
 70
     1
102
RTVSPropertyOp21
 70
     1
102
RTVSPropertyOp22
 70
     1
102
RTVSPropertyOp23
 70
     1
102
RTVSPropertyOp24
 70
     1
102
RTVSPropertyOp25
 70
     1
102
RTVSPropertyOp26
 70
     1
102
RTVSPropertyOp27
 70
     1
102
RTVSPropertyOp28
 70
     1
102
RTVSPropertyOp29
 70
     1
102
RTVSPropertyOp30
 70
     1
102
RTVSPropertyOp31
 70
     1
102
RTVSPropertyOp32
 70
     1
102
RTVSPropertyOp33
 70
     1
102
RTVSPropertyOp34
 70
     1
102
RTVSPropertyOp35
 70
     1
102
RTVSPropertyOp36
 70
     1
102
RTVSPropertyOp37
 70
     1
102
RTVSPropertyOp38
 70
     1
102
RTVSPropertyOp39
 70
     1
102
RTVSPropertyOp40
 70
     1
102
RTVSPropertyOp41
 70
     1
102
RTVSPropertyOp42
 70
     1
102
RTVSPropertyOp43
 70
     1
102
RTVSPropertyOp44
 70
     1
102
RTVSPropertyOp45
 70
     1
102
RTVSPropertyOp46
 70
     1
102
RTVSPropertyOp47
 70
     1
102
RTVSPropertyOp48
 70
     1
102
RTVSPropertyOp49
 70
     1
102
RTVSPropertyOp50
 70
     1
102
RTVSPropertyOp51
 70
     0
102
RTVSPropertyOp52
 70
     0
102
RTVSPropertyOp53
 70
     1
102
RTVSPropertyOp54
 70
     1
102
RTVSPropertyOp55
 70
     1
102
RTVSPropertyOp56
 70
     1
102
RTVSPropertyOp57
 70
     1
102
RTVSPost2010Prop28
280
     0
102
RTVSPost2010PropOp28
 70
     1
102
RTVSPost2010Prop29
280
     1
102
RTVSPost2010PropOp29
 70
     1
102
RTVSPost2010Prop30
280
     1
102
RTVSPost2010PropOp30
 70
     1
102
RTVSPost2010Prop31
280
     0
102
RTVSPost2010PropOp31
 70
     1
102
RTVSPost2010Prop32
280
     0
102
RTVSPost2010PropOp32
 70
     1
102
RTVSPost2010Prop33
280
     0
102
RTVSPost2010PropOp33
 70
     1
102
RTVSPost2010Prop34
280
     0
102
RTVSPost2010PropOp34
 70
     1
102
RTVSPost2010Prop35
280
     0
102
RTVSPost2010PropOp35
 70
     1
102
RTVSPost2010Prop36
280
     0
102
RTVSPost2010PropOp36
 70
     1
102
RTVSPost2010Prop37
 90
       50
102
RTVSPost2010PropOp37
 70
     1
102
RTVSPost2010Prop38
140
0.0
102
RTVSPost2010PropOp38
 70
     1
102
RTVSPost2010Prop39
140
1.0
102
RTVSPost2010PropOp39
 70
     1
102
RTVSPost2010Prop40
 90
        0
102
RTVSPost2010PropOp40
 70
     1
102
RTVSPost2010Prop41ColorIndex
 90
       18
102
RTVSPost2010Prop41ColorRGB
 90
        0
102
RTVSPost2010PropOp41
 70
     1
102
RTVSPost2010Prop42
 90
       50
102
RTVSPost2010PropOp42
 70
     1
102
RTVSPost2010Prop43
 90
        3
102
RTVSPost2010PropOp43
 70
     1
102
RTVSPost2010Prop44ColorIndex
 90
        5
102
RTVSPost2010Prop44ColorRGB
 90
      255
102
RTVSPost2010PropOp44
 70
     1
102
RTVSPost2010Prop45
280
     0
102
RTVSPost2010PropOp45
 70
     1
102
RTVSPost2010Prop46
 90
       50
102
RTVSPost2010PropOp46
 70
     1
102
RTVSPost2010Prop47
 90
       50
102
RTVSPost2010PropOp47
 70
     1
102
RTVSPost2010Prop48
 90
       50
102
RTVSPost2010PropOp48
 70
     1
102
RTVSPost2010Prop49
280
     0
102
RTVSPost2010PropOp49
 70
     1
102
RTVSPost2010Prop50
 90
       50
102
RTVSPost2010PropOp50
 70
     1
102
RTVSPost2010Prop51ColorIndex
 90
      256
102
RTVSPost2010Prop51ColorRGB
 90
-16777216
102
RTVSPost2010PropOp51
 70
     0
102
RTVSPost2010Prop52
140
1.0
102
RTVSPost2010PropOp52
 70
     0
102
RTVSPost2010Prop53
 90
        2
102
RTVSPost2010PropOp53
 70
     1
102
RTVSPost2010Prop54
  1
strokes_ogs.tif
102
RTVSPost2010PropOp54
 70
     1
102
RTVSPost2010Prop55
280
     0
102
RTVSPost2010PropOp55
 70
     1
102
RTVSPost2010Prop56
140
1.0
102
RTVSPost2010PropOp56
 70
     1
102
RTVSPost2010Prop57
140
1.0
102
RTVSPost2010PropOp57
 70
     1
  0
XRECORD
  5
35D
102
{ACAD_REACTORS
330
35C
102
}
330
35C
100
AcDbXrecord
280
     1
102
RTVSPropertyOp0
 70
     1
102
RTVSPropertyOp1
 70
     1
102
RTVSPropertyOp2
 70
     1
102
RTVSPropertyOp3
 70
     1
102
RTVSPropertyOp4
 70
     1
102
RTVSPropertyOp5
 70
     1
102
RTVSPropertyOp6
 70
     1
102
RTVSPropertyOp7
 70
     1
102
RTVSPropertyOp8
 70
     1
102
RTVSPropertyOp9
 70
     1
102
RTVSPropertyOp10
 70
     1
102
RTVSPropertyOp11
 70
     1
102
RTVSPropertyOp12
 70
     1
102
RTVSPropertyOp13
 70
     1
102
RTVSPropertyOp14
 70
     1
102
RTVSPropertyOp15
 70
     1
102
RTVSPropertyOp16
 70
     1
102
RTVSPropertyOp17
 70
     1
102
RTVSPropertyOp18
 70
     1
102
RTVSPropertyOp19
 70
     1
102
RTVSPropertyOp20
 70
     1
102
RTVSPropertyOp21
 70
     1
102
RTVSPropertyOp22
 70
     1
102
RTVSPropertyOp23
 70
     1
102
RTVSPropertyOp24
 70
     1
102
RTVSPropertyOp25
 70
     1
102
RTVSPropertyOp26
 70
     1
102
RTVSPropertyOp27
 70
     1
102
RTVSPropertyOp28
 70
     1
102
RTVSPropertyOp29
 70
     1
102
RTVSPropertyOp30
 70
     1
102
RTVSPropertyOp31
 70
     1
102
RTVSPropertyOp32
 70
     1
102
RTVSPropertyOp33
 70
     1
102
RTVSPropertyOp34
 70
     1
102
RTVSPropertyOp35
 70
     1
102
RTVSPropertyOp36
 70
     1
102
RTVSPropertyOp37
 70
     1
102
RTVSPropertyOp38
 70
     1
102
RTVSPropertyOp39
 70
     1
102
RTVSPropertyOp40
 70
     1
102
RTVSPropertyOp41
 70
     1
102
RTVSPropertyOp42
 70
     1
102
RTVSPropertyOp43
 70
     1
102
RTVSPropertyOp44
 70
     1
102
RTVSPropertyOp45
 70
     1
102
RTVSPropertyOp46
 70
     1
102
RTVSPropertyOp47
 70
     1
102
RTVSPropertyOp48
 70
     1
102
RTVSPropertyOp49
 70
     1
102
RTVSPropertyOp50
 70
     1
102
RTVSPropertyOp51
 70
     0
102
RTVSPropertyOp52
 70
     0
102
RTVSPropertyOp53
 70
     1
102
RTVSPropertyOp54
 70
     1
102
RTVSPropertyOp55
 70
     1
102
RTVSPropertyOp56
 70
     1
102
RTVSPropertyOp57
 70
     1
102
RTVSPost2010Prop28
280
     0
102
RTVSPost2010PropOp28
 70
     1
102
RTVSPost2010Prop29
280
     1
102
RTVSPost2010PropOp29
 70
     1
102
RTVSPost2010Prop30
280
     1
102
RTVSPost2010PropOp30
 70
     1
102
RTVSPost2010Prop31
280
     0
102
RTVSPost2010PropOp31
 70
     1
102
RTVSPost2010Prop32
280
     0
102
RTVSPost2010PropOp32
 70
     1
102
RTVSPost2010Prop33
280
     0
102
RTVSPost2010PropOp33
 70
     1
102
RTVSPost2010Prop34
280
     0
102
RTVSPost2010PropOp34
 70
     1
102
RTVSPost2010Prop35
280
     0
102
RTVSPost2010PropOp35
 70
     1
102
RTVSPost2010Prop36
280
     0
102
RTVSPost2010PropOp36
 70
     1
102
RTVSPost2010Prop37
 90
       50
102
RTVSPost2010PropOp37
 70
     1
102
RTVSPost2010Prop38
140
0.0
102
RTVSPost2010PropOp38
 70
     1
102
RTVSPost2010Prop39
140
1.0
102
RTVSPost2010PropOp39
 70
     1
102
RTVSPost2010Prop40
 90
        0
102
RTVSPost2010PropOp40
 70
     1
102
RTVSPost2010Prop41ColorIndex
 90
       18
102
RTVSPost2010Prop41ColorRGB
 90
        0
102
RTVSPost2010PropOp41
 70
     1
102
RTVSPost2010Prop42
 90
       50
102
RTVSPost2010PropOp42
 70
     1
102
RTVSPost2010Prop43
 90
        3
102
RTVSPost2010PropOp43
 70
     1
102
RTVSPost2010Prop44ColorIndex
 90
        5
102
RTVSPost2010Prop44ColorRGB
 90
      255
102
RTVSPost2010PropOp44
 70
     1
102
RTVSPost2010Prop45
280
     0
102
RTVSPost2010PropOp45
 70
     1
102
RTVSPost2010Prop46
 90
       50
102
RTVSPost2010PropOp46
 70
     1
102
RTVSPost2010Prop47
 90
       50
102
RTVSPost2010PropOp47
 70
     1
102
RTVSPost2010Prop48
 90
       50
102
RTVSPost2010PropOp48
 70
     1
102
RTVSPost2010Prop49
280
     0
102
RTVSPost2010PropOp49
 70
     1
102
RTVSPost2010Prop50
 90
       50
102
RTVSPost2010PropOp50
 70
     1
102
RTVSPost2010Prop51ColorIndex
 90
      256
102
RTVSPost2010Prop51ColorRGB
 90
-16777216
102
RTVSPost2010PropOp51
 70
     0
102
RTVSPost2010Prop52
140
1.0
102
RTVSPost2010PropOp52
 70
     0
102
RTVSPost2010Prop53
 90
        2
102
RTVSPost2010PropOp53
 70
     1
102
RTVSPost2010Prop54
  1
strokes_ogs.tif
102
RTVSPost2010PropOp54
 70
     1
102
RTVSPost2010Prop55
280
     0
102
RTVSPost2010PropOp55
 70
     1
102
RTVSPost2010Prop56
140
1.0
102
RTVSPost2010PropOp56
 70
     1
102
RTVSPost2010Prop57
140
1.0
102
RTVSPost2010PropOp57
 70
     1
  0
XRECORD
  5
35F
102
{ACAD_REACTORS
330
35E
102
}
330
35E
100
AcDbXrecord
280
     1
102
RTVSPropertyOp0
 70
     1
102
RTVSPropertyOp1
 70
     1
102
RTVSPropertyOp2
 70
     1
102
RTVSPropertyOp3
 70
     1
102
RTVSPropertyOp4
 70
     1
102
RTVSPropertyOp5
 70
     1
102
RTVSPropertyOp6
 70
     1
102
RTVSPropertyOp7
 70
     1
102
RTVSPropertyOp8
 70
     1
102
RTVSPropertyOp9
 70
     1
102
RTVSPropertyOp10
 70
     1
102
RTVSPropertyOp11
 70
     1
102
RTVSPropertyOp12
 70
     1
102
RTVSPropertyOp13
 70
     1
102
RTVSPropertyOp14
 70
     1
102
RTVSPropertyOp15
 70
     1
102
RTVSPropertyOp16
 70
     1
102
RTVSPropertyOp17
 70
     1
102
RTVSPropertyOp18
 70
     1
102
RTVSPropertyOp19
 70
     1
102
RTVSPropertyOp20
 70
     1
102
RTVSPropertyOp21
 70
     1
102
RTVSPropertyOp22
 70
     1
102
RTVSPropertyOp23
 70
     1
102
RTVSPropertyOp24
 70
     1
102
RTVSPropertyOp25
 70
     1
102
RTVSPropertyOp26
 70
     1
102
RTVSPropertyOp27
 70
     1
102
RTVSPropertyOp28
 70
     1
102
RTVSPropertyOp29
 70
     1
102
RTVSPropertyOp30
 70
     1
102
RTVSPropertyOp31
 70
     1
102
RTVSPropertyOp32
 70
     1
102
RTVSPropertyOp33
 70
     1
102
RTVSPropertyOp34
 70
     1
102
RTVSPropertyOp35
 70
     1
102
RTVSPropertyOp36
 70
     1
102
RTVSPropertyOp37
 70
     1
102
RTVSPropertyOp38
 70
     1
102
RTVSPropertyOp39
 70
     1
102
RTVSPropertyOp40
 70
     1
102
RTVSPropertyOp41
 70
     1
102
RTVSPropertyOp42
 70
     1
102
RTVSPropertyOp43
 70
     1
102
RTVSPropertyOp44
 70
     1
102
RTVSPropertyOp45
 70
     1
102
RTVSPropertyOp46
 70
     1
102
RTVSPropertyOp47
 70
     1
102
RTVSPropertyOp48
 70
     1
102
RTVSPropertyOp49
 70
     1
102
RTVSPropertyOp50
 70
     1
102
RTVSPropertyOp51
 70
     0
102
RTVSPropertyOp52
 70
     0
102
RTVSPropertyOp53
 70
     1
102
RTVSPropertyOp54
 70
     1
102
RTVSPropertyOp55
 70
     1
102
RTVSPropertyOp56
 70
     1
102
RTVSPropertyOp57
 70
     1
102
RTVSPost2010Prop28
280
     0
102
RTVSPost2010PropOp28
 70
     1
102
RTVSPost2010Prop29
280
     1
102
RTVSPost2010PropOp29
 70
     1
102
RTVSPost2010Prop30
280
     1
102
RTVSPost2010PropOp30
 70
     1
102
RTVSPost2010Prop31
280
     0
102
RTVSPost2010PropOp31
 70
     1
102
RTVSPost2010Prop32
280
     0
102
RTVSPost2010PropOp32
 70
     1
102
RTVSPost2010Prop33
280
     0
102
RTVSPost2010PropOp33
 70
     1
102
RTVSPost2010Prop34
280
     0
102
RTVSPost2010PropOp34
 70
     1
102
RTVSPost2010Prop35
280
     0
102
RTVSPost2010PropOp35
 70
     1
102
RTVSPost2010Prop36
280
     0
102
RTVSPost2010PropOp36
 70
     1
102
RTVSPost2010Prop37
 90
       50
102
RTVSPost2010PropOp37
 70
     1
102
RTVSPost2010Prop38
140
0.0
102
RTVSPost2010PropOp38
 70
     1
102
RTVSPost2010Prop39
140
1.0
102
RTVSPost2010PropOp39
 70
     1
102
RTVSPost2010Prop40
 90
        0
102
RTVSPost2010PropOp40
 70
     1
102
RTVSPost2010Prop41ColorIndex
 90
       18
102
RTVSPost2010Prop41ColorRGB
 90
        0
102
RTVSPost2010PropOp41
 70
     1
102
RTVSPost2010Prop42
 90
       50
102
RTVSPost2010PropOp42
 70
     1
102
RTVSPost2010Prop43
 90
        3
102
RTVSPost2010PropOp43
 70
     1
102
RTVSPost2010Prop44ColorIndex
 90
        5
102
RTVSPost2010Prop44ColorRGB
 90
      255
102
RTVSPost2010PropOp44
 70
     1
102
RTVSPost2010Prop45
280
     0
102
RTVSPost2010PropOp45
 70
     1
102
RTVSPost2010Prop46
 90
       50
102
RTVSPost2010PropOp46
 70
     1
102
RTVSPost2010Prop47
 90
       50
102
RTVSPost2010PropOp47
 70
     1
102
RTVSPost2010Prop48
 90
       50
102
RTVSPost2010PropOp48
 70
     1
102
RTVSPost2010Prop49
280
     0
102
RTVSPost2010PropOp49
 70
     1
102
RTVSPost2010Prop50
 90
       50
102
RTVSPost2010PropOp50
 70
     1
102
RTVSPost2010Prop51ColorIndex
 90
      256
102
RTVSPost2010Prop51ColorRGB
 90
-16777216
102
RTVSPost2010PropOp51
 70
     0
102
RTVSPost2010Prop52
140
1.0
102
RTVSPost2010PropOp52
 70
     0
102
RTVSPost2010Prop53
 90
        2
102
RTVSPost2010PropOp53
 70
     1
102
RTVSPost2010Prop54
  1
strokes_ogs.tif
102
RTVSPost2010PropOp54
 70
     1
102
RTVSPost2010Prop55
280
     0
102
RTVSPost2010PropOp55
 70
     1
102
RTVSPost2010Prop56
140
1.0
102
RTVSPost2010PropOp56
 70
     1
102
RTVSPost2010Prop57
140
1.0
102
RTVSPost2010PropOp57
 70
     1
  0
XRECORD
  5
36F
102
{ACAD_REACTORS
330
36E
102
}
330
36E
100
AcDbXrecord
280
     1
102
RTVSPropertyOp0
 70
     0
102
RTVSPropertyOp1
 70
     0
102
RTVSPropertyOp2
 70
     0
102
RTVSPropertyOp3
 70
     0
102
RTVSPropertyOp4
 70
     0
102
RTVSPropertyOp5
 70
     0
102
RTVSPropertyOp6
 70
     0
102
RTVSPropertyOp7
 70
     0
102
RTVSPropertyOp8
 70
     0
102
RTVSPropertyOp9
 70
     0
102
RTVSPropertyOp10
 70
     0
102
RTVSPropertyOp11
 70
     0
102
RTVSPropertyOp12
 70
     0
102
RTVSPropertyOp13
 70
     0
102
RTVSPropertyOp14
 70
     2
102
RTVSPropertyOp15
 70
     0
102
RTVSPropertyOp16
 70
     0
102
RTVSPropertyOp17
 70
     0
102
RTVSPropertyOp18
 70
     0
102
RTVSPropertyOp19
 70
     0
102
RTVSPropertyOp20
 70
     0
102
RTVSPropertyOp21
 70
     0
102
RTVSPropertyOp22
 70
     0
102
RTVSPropertyOp23
 70
     0
102
RTVSPropertyOp24
 70
     0
102
RTVSPropertyOp25
 70
     0
102
RTVSPropertyOp26
 70
     0
102
RTVSPropertyOp27
 70
     0
102
RTVSPropertyOp28
 70
     0
102
RTVSPropertyOp29
 70
     0
102
RTVSPropertyOp30
 70
     0
102
RTVSPropertyOp31
 70
     0
102
RTVSPropertyOp32
 70
     0
102
RTVSPropertyOp33
 70
     0
102
RTVSPropertyOp34
 70
     0
102
RTVSPropertyOp35
 70
     0
102
RTVSPropertyOp36
 70
     0
102
RTVSPropertyOp37
 70
     0
102
RTVSPropertyOp38
 70
     0
102
RTVSPropertyOp39
 70
     0
102
RTVSPropertyOp40
 70
     0
102
RTVSPropertyOp41
 70
     0
102
RTVSPropertyOp42
 70
     0
102
RTVSPropertyOp43
 70
     0
102
RTVSPropertyOp44
 70
     0
102
RTVSPropertyOp45
 70
     0
102
RTVSPropertyOp46
 70
     0
102
RTVSPropertyOp47
 70
     0
102
RTVSPropertyOp48
 70
     0
102
RTVSPropertyOp49
 70
     0
102
RTVSPropertyOp50
 70
     0
102
RTVSPropertyOp51
 70
     0
102
RTVSPropertyOp52
 70
     0
102
RTVSPropertyOp53
 70
     0
102
RTVSPropertyOp54
 70
     0
102
RTVSPropertyOp55
 70
     0
102
RTVSPropertyOp56
 70
     0
102
RTVSPropertyOp57
 70
     0
102
RTVSPost2010Prop28
280
     0
102
RTVSPost2010PropOp28
 70
     0
102
RTVSPost2010Prop29
280
     1
102
RTVSPost2010PropOp29
 70
     0
102
RTVSPost2010Prop30
280
     1
102
RTVSPost2010PropOp30
 70
     0
102
RTVSPost2010Prop31
280
     0
102
RTVSPost2010PropOp31
 70
     0
102
RTVSPost2010Prop32
280
     0
102
RTVSPost2010PropOp32
 70
     0
102
RTVSPost2010Prop33
280
     0
102
RTVSPost2010PropOp33
 70
     0
102
RTVSPost2010Prop34
280
     0
102
RTVSPost2010PropOp34
 70
     0
102
RTVSPost2010Prop35
280
     0
102
RTVSPost2010PropOp35
 70
     0
102
RTVSPost2010Prop36
280
     0
102
RTVSPost2010PropOp36
 70
     0
102
RTVSPost2010Prop37
 90
       50
102
RTVSPost2010PropOp37
 70
     0
102
RTVSPost2010Prop38
140
0.0
102
RTVSPost2010PropOp38
 70
     0
102
RTVSPost2010Prop39
140
1.0
102
RTVSPost2010PropOp39
 70
     0
102
RTVSPost2010Prop40
 90
        0
102
RTVSPost2010PropOp40
 70
     0
102
RTVSPost2010Prop41ColorIndex
 90
       18
102
RTVSPost2010Prop41ColorRGB
 90
        0
102
RTVSPost2010PropOp41
 70
     0
102
RTVSPost2010Prop42
 90
       50
102
RTVSPost2010PropOp42
 70
     0
102
RTVSPost2010Prop43
 90
        3
102
RTVSPost2010PropOp43
 70
     0
102
RTVSPost2010Prop44ColorIndex
 90
        5
102
RTVSPost2010Prop44ColorRGB
 90
      255
102
RTVSPost2010PropOp44
 70
     0
102
RTVSPost2010Prop45
280
     0
102
RTVSPost2010PropOp45
 70
     0
102
RTVSPost2010Prop46
 90
       50
102
RTVSPost2010PropOp46
 70
     0
102
RTVSPost2010Prop47
 90
       50
102
RTVSPost2010PropOp47
 70
     0
102
RTVSPost2010Prop48
 90
       50
102
RTVSPost2010PropOp48
 70
     0
102
RTVSPost2010Prop49
280
     0
102
RTVSPost2010PropOp49
 70
     0
102
RTVSPost2010Prop50
 90
       50
102
RTVSPost2010PropOp50
 70
     0
102
RTVSPost2010Prop51ColorIndex
 90
      256
102
RTVSPost2010Prop51ColorRGB
 90
-16777216
102
RTVSPost2010PropOp51
 70
     0
102
RTVSPost2010Prop52
140
1.0
102
RTVSPost2010PropOp52
 70
     0
102
RTVSPost2010Prop53
 90
        2
102
RTVSPost2010PropOp53
 70
     0
102
RTVSPost2010Prop54
  1
strokes_ogs.tif
102
RTVSPost2010PropOp54
 70
     0
102
RTVSPost2010Prop55
280
     0
102
RTVSPost2010PropOp55
 70
     0
102
RTVSPost2010Prop56
140
1.0
102
RTVSPost2010PropOp56
 70
     0
102
RTVSPost2010Prop57
140
1.0
102
RTVSPost2010PropOp57
 70
     0
  0
XRECORD
  5
367
102
{ACAD_REACTORS
330
366
102
}
330
366
100
AcDbXrecord
280
     1
102
RTVSPropertyOp0
 70
     1
102
RTVSPropertyOp1
 70
     1
102
RTVSPropertyOp2
 70
     1
102
RTVSPropertyOp3
 70
     1
102
RTVSPropertyOp4
 70
     1
102
RTVSPropertyOp5
 70
     1
102
RTVSPropertyOp6
 70
     1
102
RTVSPropertyOp7
 70
     1
102
RTVSPropertyOp8
 70
     1
102
RTVSPropertyOp9
 70
     1
102
RTVSPropertyOp10
 70
     1
102
RTVSPropertyOp11
 70
     1
102
RTVSPropertyOp12
 70
     1
102
RTVSPropertyOp13
 70
     1
102
RTVSPropertyOp14
 70
     1
102
RTVSPropertyOp15
 70
     1
102
RTVSPropertyOp16
 70
     1
102
RTVSPropertyOp17
 70
     1
102
RTVSPropertyOp18
 70
     1
102
RTVSPropertyOp19
 70
     1
102
RTVSPropertyOp20
 70
     1
102
RTVSPropertyOp21
 70
     1
102
RTVSPropertyOp22
 70
     1
102
RTVSPropertyOp23
 70
     1
102
RTVSPropertyOp24
 70
     1
102
RTVSPropertyOp25
 70
     1
102
RTVSPropertyOp26
 70
     1
102
RTVSPropertyOp27
 70
     1
102
RTVSPropertyOp28
 70
     1
102
RTVSPropertyOp29
 70
     1
102
RTVSPropertyOp30
 70
     1
102
RTVSPropertyOp31
 70
     1
102
RTVSPropertyOp32
 70
     1
102
RTVSPropertyOp33
 70
     1
102
RTVSPropertyOp34
 70
     1
102
RTVSPropertyOp35
 70
     1
102
RTVSPropertyOp36
 70
     1
102
RTVSPropertyOp37
 70
     1
102
RTVSPropertyOp38
 70
     1
102
RTVSPropertyOp39
 70
     1
102
RTVSPropertyOp40
 70
     1
102
RTVSPropertyOp41
 70
     1
102
RTVSPropertyOp42
 70
     1
102
RTVSPropertyOp43
 70
     1
102
RTVSPropertyOp44
 70
     1
102
RTVSPropertyOp45
 70
     1
102
RTVSPropertyOp46
 70
     1
102
RTVSPropertyOp47
 70
     1
102
RTVSPropertyOp48
 70
     1
102
RTVSPropertyOp49
 70
     1
102
RTVSPropertyOp50
 70
     1
102
RTVSPropertyOp51
 70
     0
102
RTVSPropertyOp52
 70
     0
102
RTVSPropertyOp53
 70
     1
102
RTVSPropertyOp54
 70
     1
102
RTVSPropertyOp55
 70
     1
102
RTVSPropertyOp56
 70
     1
102
RTVSPropertyOp57
 70
     1
102
RTVSPost2010Prop28
280
     0
102
RTVSPost2010PropOp28
 70
     1
102
RTVSPost2010Prop29
280
     1
102
RTVSPost2010PropOp29
 70
     1
102
RTVSPost2010Prop30
280
     1
102
RTVSPost2010PropOp30
 70
     1
102
RTVSPost2010Prop31
280
     0
102
RTVSPost2010PropOp31
 70
     1
102
RTVSPost2010Prop32
280
     0
102
RTVSPost2010PropOp32
 70
     1
102
RTVSPost2010Prop33
280
     0
102
RTVSPost2010PropOp33
 70
     1
102
RTVSPost2010Prop34
280
     0
102
RTVSPost2010PropOp34
 70
     1
102
RTVSPost2010Prop35
280
     0
102
RTVSPost2010PropOp35
 70
     1
102
RTVSPost2010Prop36
280
     0
102
RTVSPost2010PropOp36
 70
     1
102
RTVSPost2010Prop37
 90
       50
102
RTVSPost2010PropOp37
 70
     1
102
RTVSPost2010Prop38
140
0.0
102
RTVSPost2010PropOp38
 70
     1
102
RTVSPost2010Prop39
140
1.0
102
RTVSPost2010PropOp39
 70
     1
102
RTVSPost2010Prop40
 90
        0
102
RTVSPost2010PropOp40
 70
     1
102
RTVSPost2010Prop41ColorIndex
 90
       18
102
RTVSPost2010Prop41ColorRGB
 90
        0
102
RTVSPost2010PropOp41
 70
     1
102
RTVSPost2010Prop42
 90
       50
102
RTVSPost2010PropOp42
 70
     1
102
RTVSPost2010Prop43
 90
        3
102
RTVSPost2010PropOp43
 70
     1
102
RTVSPost2010Prop44ColorIndex
 90
        5
102
RTVSPost2010Prop44ColorRGB
 90
      255
102
RTVSPost2010PropOp44
 70
     1
102
RTVSPost2010Prop45
280
     0
102
RTVSPost2010PropOp45
 70
     1
102
RTVSPost2010Prop46
 90
       50
102
RTVSPost2010PropOp46
 70
     1
102
RTVSPost2010Prop47
 90
       50
102
RTVSPost2010PropOp47
 70
     1
102
RTVSPost2010Prop48
 90
       50
102
RTVSPost2010PropOp48
 70
     1
102
RTVSPost2010Prop49
280
     0
102
RTVSPost2010PropOp49
 70
     1
102
RTVSPost2010Prop50
 90
       50
102
RTVSPost2010PropOp50
 70
     1
102
RTVSPost2010Prop51ColorIndex
 90
      256
102
RTVSPost2010Prop51ColorRGB
 90
-16777216
102
RTVSPost2010PropOp51
 70
     0
102
RTVSPost2010Prop52
140
1.0
102
RTVSPost2010PropOp52
 70
     0
102
RTVSPost2010Prop53
 90
        2
102
RTVSPost2010PropOp53
 70
     1
102
RTVSPost2010Prop54
  1
strokes_ogs.tif
102
RTVSPost2010PropOp54
 70
     1
102
RTVSPost2010Prop55
280
     0
102
RTVSPost2010PropOp55
 70
     1
102
RTVSPost2010Prop56
140
1.0
102
RTVSPost2010PropOp56
 70
     1
102
RTVSPost2010Prop57
140
1.0
102
RTVSPost2010PropOp57
 70
     1
  0
XRECORD
  5
34B
102
{ACAD_REACTORS
330
34A
102
}
330
34A
100
AcDbXrecord
280
     1
102
RTVSPropertyOp0
 70
     1
102
RTVSPropertyOp1
 70
     1
102
RTVSPropertyOp2
 70
     1
102
RTVSPropertyOp3
 70
     1
102
RTVSPropertyOp4
 70
     1
102
RTVSPropertyOp5
 70
     1
102
RTVSPropertyOp6
 70
     1
102
RTVSPropertyOp7
 70
     1
102
RTVSPropertyOp8
 70
     1
102
RTVSPropertyOp9
 70
     1
102
RTVSPropertyOp10
 70
     1
102
RTVSPropertyOp11
 70
     1
102
RTVSPropertyOp12
 70
     1
102
RTVSPropertyOp13
 70
     1
102
RTVSPropertyOp14
 70
     1
102
RTVSPropertyOp15
 70
     1
102
RTVSPropertyOp16
 70
     1
102
RTVSPropertyOp17
 70
     1
102
RTVSPropertyOp18
 70
     1
102
RTVSPropertyOp19
 70
     1
102
RTVSPropertyOp20
 70
     1
102
RTVSPropertyOp21
 70
     1
102
RTVSPropertyOp22
 70
     1
102
RTVSPropertyOp23
 70
     1
102
RTVSPropertyOp24
 70
     1
102
RTVSPropertyOp25
 70
     1
102
RTVSPropertyOp26
 70
     1
102
RTVSPropertyOp27
 70
     1
102
RTVSPropertyOp28
 70
     1
102
RTVSPropertyOp29
 70
     1
102
RTVSPropertyOp30
 70
     1
102
RTVSPropertyOp31
 70
     1
102
RTVSPropertyOp32
 70
     1
102
RTVSPropertyOp33
 70
     1
102
RTVSPropertyOp34
 70
     1
102
RTVSPropertyOp35
 70
     1
102
RTVSPropertyOp36
 70
     1
102
RTVSPropertyOp37
 70
     1
102
RTVSPropertyOp38
 70
     1
102
RTVSPropertyOp39
 70
     1
102
RTVSPropertyOp40
 70
     1
102
RTVSPropertyOp41
 70
     1
102
RTVSPropertyOp42
 70
     1
102
RTVSPropertyOp43
 70
     1
102
RTVSPropertyOp44
 70
     1
102
RTVSPropertyOp45
 70
     1
102
RTVSPropertyOp46
 70
     1
102
RTVSPropertyOp47
 70
     1
102
RTVSPropertyOp48
 70
     1
102
RTVSPropertyOp49
 70
     1
102
RTVSPropertyOp50
 70
     1
102
RTVSPropertyOp51
 70
     0
102
RTVSPropertyOp52
 70
     0
102
RTVSPropertyOp53
 70
     1
102
RTVSPropertyOp54
 70
     1
102
RTVSPropertyOp55
 70
     1
102
RTVSPropertyOp56
 70
     1
102
RTVSPropertyOp57
 70
     1
102
RTVSPost2010Prop28
280
     0
102
RTVSPost2010PropOp28
 70
     1
102
RTVSPost2010Prop29
280
     1
102
RTVSPost2010PropOp29
 70
     1
102
RTVSPost2010Prop30
280
     1
102
RTVSPost2010PropOp30
 70
     1
102
RTVSPost2010Prop31
280
     0
102
RTVSPost2010PropOp31
 70
     1
102
RTVSPost2010Prop32
280
     0
102
RTVSPost2010PropOp32
 70
     1
102
RTVSPost2010Prop33
280
     0
102
RTVSPost2010PropOp33
 70
     1
102
RTVSPost2010Prop34
280
     0
102
RTVSPost2010PropOp34
 70
     1
102
RTVSPost2010Prop35
280
     0
102
RTVSPost2010PropOp35
 70
     1
102
RTVSPost2010Prop36
280
     0
102
RTVSPost2010PropOp36
 70
     1
102
RTVSPost2010Prop37
 90
       50
102
RTVSPost2010PropOp37
 70
     1
102
RTVSPost2010Prop38
140
0.0
102
RTVSPost2010PropOp38
 70
     1
102
RTVSPost2010Prop39
140
1.0
102
RTVSPost2010PropOp39
 70
     1
102
RTVSPost2010Prop40
 90
        0
102
RTVSPost2010PropOp40
 70
     1
102
RTVSPost2010Prop41ColorIndex
 90
       18
102
RTVSPost2010Prop41ColorRGB
 90
        0
102
RTVSPost2010PropOp41
 70
     1
102
RTVSPost2010Prop42
 90
       50
102
RTVSPost2010PropOp42
 70
     1
102
RTVSPost2010Prop43
 90
        3
102
RTVSPost2010PropOp43
 70
     1
102
RTVSPost2010Prop44ColorIndex
 90
        5
102
RTVSPost2010Prop44ColorRGB
 90
      255
102
RTVSPost2010PropOp44
 70
     1
102
RTVSPost2010Prop45
280
     0
102
RTVSPost2010PropOp45
 70
     1
102
RTVSPost2010Prop46
 90
       50
102
RTVSPost2010PropOp46
 70
     1
102
RTVSPost2010Prop47
 90
       50
102
RTVSPost2010PropOp47
 70
     1
102
RTVSPost2010Prop48
 90
       50
102
RTVSPost2010PropOp48
 70
     1
102
RTVSPost2010Prop49
280
     0
102
RTVSPost2010PropOp49
 70
     1
102
RTVSPost2010Prop50
 90
       50
102
RTVSPost2010PropOp50
 70
     1
102
RTVSPost2010Prop51ColorIndex
 90
      256
102
RTVSPost2010Prop51ColorRGB
 90
-16777216
102
RTVSPost2010PropOp51
 70
     0
102
RTVSPost2010Prop52
140
1.0
102
RTVSPost2010PropOp52
 70
     0
102
RTVSPost2010Prop53
 90
        2
102
RTVSPost2010PropOp53
 70
     1
102
RTVSPost2010Prop54
  1
strokes_ogs.tif
102
RTVSPost2010PropOp54
 70
     1
102
RTVSPost2010Prop55
280
     0
102
RTVSPost2010PropOp55
 70
     1
102
RTVSPost2010Prop56
140
1.0
102
RTVSPost2010PropOp56
 70
     1
102
RTVSPost2010Prop57
140
1.0
102
RTVSPost2010PropOp57
 70
     1
  0
XRECORD
  5
34D
102
{ACAD_REACTORS
330
34C
102
}
330
34C
100
AcDbXrecord
280
     1
102
RTVSPropertyOp0
 70
     1
102
RTVSPropertyOp1
 70
     1
102
RTVSPropertyOp2
 70
     1
102
RTVSPropertyOp3
 70
     1
102
RTVSPropertyOp4
 70
     1
102
RTVSPropertyOp5
 70
     1
102
RTVSPropertyOp6
 70
     1
102
RTVSPropertyOp7
 70
     1
102
RTVSPropertyOp8
 70
     1
102
RTVSPropertyOp9
 70
     1
102
RTVSPropertyOp10
 70
     1
102
RTVSPropertyOp11
 70
     1
102
RTVSPropertyOp12
 70
     1
102
RTVSPropertyOp13
 70
     1
102
RTVSPropertyOp14
 70
     1
102
RTVSPropertyOp15
 70
     1
102
RTVSPropertyOp16
 70
     1
102
RTVSPropertyOp17
 70
     1
102
RTVSPropertyOp18
 70
     1
102
RTVSPropertyOp19
 70
     1
102
RTVSPropertyOp20
 70
     1
102
RTVSPropertyOp21
 70
     1
102
RTVSPropertyOp22
 70
     1
102
RTVSPropertyOp23
 70
     1
102
RTVSPropertyOp24
 70
     1
102
RTVSPropertyOp25
 70
     1
102
RTVSPropertyOp26
 70
     1
102
RTVSPropertyOp27
 70
     1
102
RTVSPropertyOp28
 70
     1
102
RTVSPropertyOp29
 70
     1
102
RTVSPropertyOp30
 70
     1
102
RTVSPropertyOp31
 70
     1
102
RTVSPropertyOp32
 70
     1
102
RTVSPropertyOp33
 70
     1
102
RTVSPropertyOp34
 70
     1
102
RTVSPropertyOp35
 70
     1
102
RTVSPropertyOp36
 70
     1
102
RTVSPropertyOp37
 70
     1
102
RTVSPropertyOp38
 70
     1
102
RTVSPropertyOp39
 70
     1
102
RTVSPropertyOp40
 70
     1
102
RTVSPropertyOp41
 70
     1
102
RTVSPropertyOp42
 70
     1
102
RTVSPropertyOp43
 70
     1
102
RTVSPropertyOp44
 70
     1
102
RTVSPropertyOp45
 70
     1
102
RTVSPropertyOp46
 70
     1
102
RTVSPropertyOp47
 70
     1
102
RTVSPropertyOp48
 70
     1
102
RTVSPropertyOp49
 70
     1
102
RTVSPropertyOp50
 70
     1
102
RTVSPropertyOp51
 70
     0
102
RTVSPropertyOp52
 70
     0
102
RTVSPropertyOp53
 70
     1
102
RTVSPropertyOp54
 70
     1
102
RTVSPropertyOp55
 70
     1
102
RTVSPropertyOp56
 70
     1
102
RTVSPropertyOp57
 70
     1
102
RTVSPost2010Prop28
280
     0
102
RTVSPost2010PropOp28
 70
     1
102
RTVSPost2010Prop29
280
     1
102
RTVSPost2010PropOp29
 70
     1
102
RTVSPost2010Prop30
280
     1
102
RTVSPost2010PropOp30
 70
     1
102
RTVSPost2010Prop31
280
     0
102
RTVSPost2010PropOp31
 70
     1
102
RTVSPost2010Prop32
280
     0
102
RTVSPost2010PropOp32
 70
     1
102
RTVSPost2010Prop33
280
     0
102
RTVSPost2010PropOp33
 70
     1
102
RTVSPost2010Prop34
280
     0
102
RTVSPost2010PropOp34
 70
     1
102
RTVSPost2010Prop35
280
     0
102
RTVSPost2010PropOp35
 70
     1
102
RTVSPost2010Prop36
280
     0
102
RTVSPost2010PropOp36
 70
     1
102
RTVSPost2010Prop37
 90
       50
102
RTVSPost2010PropOp37
 70
     1
102
RTVSPost2010Prop38
140
0.0
102
RTVSPost2010PropOp38
 70
     1
102
RTVSPost2010Prop39
140
1.0
102
RTVSPost2010PropOp39
 70
     1
102
RTVSPost2010Prop40
 90
        0
102
RTVSPost2010PropOp40
 70
     1
102
RTVSPost2010Prop41ColorIndex
 90
       18
102
RTVSPost2010Prop41ColorRGB
 90
        0
102
RTVSPost2010PropOp41
 70
     1
102
RTVSPost2010Prop42
 90
       50
102
RTVSPost2010PropOp42
 70
     1
102
RTVSPost2010Prop43
 90
        3
102
RTVSPost2010PropOp43
 70
     1
102
RTVSPost2010Prop44ColorIndex
 90
        5
102
RTVSPost2010Prop44ColorRGB
 90
      255
102
RTVSPost2010PropOp44
 70
     1
102
RTVSPost2010Prop45
280
     0
102
RTVSPost2010PropOp45
 70
     1
102
RTVSPost2010Prop46
 90
       50
102
RTVSPost2010PropOp46
 70
     1
102
RTVSPost2010Prop47
 90
       50
102
RTVSPost2010PropOp47
 70
     1
102
RTVSPost2010Prop48
 90
       50
102
RTVSPost2010PropOp48
 70
     1
102
RTVSPost2010Prop49
280
     0
102
RTVSPost2010PropOp49
 70
     1
102
RTVSPost2010Prop50
 90
       50
102
RTVSPost2010PropOp50
 70
     1
102
RTVSPost2010Prop51ColorIndex
 90
      256
102
RTVSPost2010Prop51ColorRGB
 90
-16777216
102
RTVSPost2010PropOp51
 70
     0
102
RTVSPost2010Prop52
140
1.0
102
RTVSPost2010PropOp52
 70
     0
102
RTVSPost2010Prop53
 90
        2
102
RTVSPost2010PropOp53
 70
     1
102
RTVSPost2010Prop54
  1
strokes_ogs.tif
102
RTVSPost2010PropOp54
 70
     1
102
RTVSPost2010Prop55
280
     0
102
RTVSPost2010PropOp55
 70
     1
102
RTVSPost2010Prop56
140
1.0
102
RTVSPost2010PropOp56
 70
     1
102
RTVSPost2010Prop57
140
1.0
102
RTVSPost2010PropOp57
 70
     1
  0
XRECORD
  5
34F
102
{ACAD_REACTORS
330
34E
102
}
330
34E
100
AcDbXrecord
280
     1
102
RTVSPropertyOp0
 70
     1
102
RTVSPropertyOp1
 70
     1
102
RTVSPropertyOp2
 70
     1
102
RTVSPropertyOp3
 70
     1
102
RTVSPropertyOp4
 70
     1
102
RTVSPropertyOp5
 70
     1
102
RTVSPropertyOp6
 70
     1
102
RTVSPropertyOp7
 70
     1
102
RTVSPropertyOp8
 70
     1
102
RTVSPropertyOp9
 70
     1
102
RTVSPropertyOp10
 70
     1
102
RTVSPropertyOp11
 70
     1
102
RTVSPropertyOp12
 70
     1
102
RTVSPropertyOp13
 70
     1
102
RTVSPropertyOp14
 70
     1
102
RTVSPropertyOp15
 70
     1
102
RTVSPropertyOp16
 70
     1
102
RTVSPropertyOp17
 70
     1
102
RTVSPropertyOp18
 70
     1
102
RTVSPropertyOp19
 70
     1
102
RTVSPropertyOp20
 70
     1
102
RTVSPropertyOp21
 70
     1
102
RTVSPropertyOp22
 70
     1
102
RTVSPropertyOp23
 70
     1
102
RTVSPropertyOp24
 70
     1
102
RTVSPropertyOp25
 70
     1
102
RTVSPropertyOp26
 70
     1
102
RTVSPropertyOp27
 70
     1
102
RTVSPropertyOp28
 70
     1
102
RTVSPropertyOp29
 70
     1
102
RTVSPropertyOp30
 70
     1
102
RTVSPropertyOp31
 70
     1
102
RTVSPropertyOp32
 70
     1
102
RTVSPropertyOp33
 70
     1
102
RTVSPropertyOp34
 70
     1
102
RTVSPropertyOp35
 70
     1
102
RTVSPropertyOp36
 70
     1
102
RTVSPropertyOp37
 70
     1
102
RTVSPropertyOp38
 70
     1
102
RTVSPropertyOp39
 70
     1
102
RTVSPropertyOp40
 70
     1
102
RTVSPropertyOp41
 70
     1
102
RTVSPropertyOp42
 70
     1
102
RTVSPropertyOp43
 70
     1
102
RTVSPropertyOp44
 70
     1
102
RTVSPropertyOp45
 70
     1
102
RTVSPropertyOp46
 70
     1
102
RTVSPropertyOp47
 70
     1
102
RTVSPropertyOp48
 70
     1
102
RTVSPropertyOp49
 70
     1
102
RTVSPropertyOp50
 70
     1
102
RTVSPropertyOp51
 70
     0
102
RTVSPropertyOp52
 70
     0
102
RTVSPropertyOp53
 70
     1
102
RTVSPropertyOp54
 70
     1
102
RTVSPropertyOp55
 70
     1
102
RTVSPropertyOp56
 70
     1
102
RTVSPropertyOp57
 70
     1
102
RTVSPost2010Prop28
280
     0
102
RTVSPost2010PropOp28
 70
     1
102
RTVSPost2010Prop29
280
     1
102
RTVSPost2010PropOp29
 70
     1
102
RTVSPost2010Prop30
280
     1
102
RTVSPost2010PropOp30
 70
     1
102
RTVSPost2010Prop31
280
     0
102
RTVSPost2010PropOp31
 70
     1
102
RTVSPost2010Prop32
280
     0
102
RTVSPost2010PropOp32
 70
     1
102
RTVSPost2010Prop33
280
     0
102
RTVSPost2010PropOp33
 70
     1
102
RTVSPost2010Prop34
280
     0
102
RTVSPost2010PropOp34
 70
     1
102
RTVSPost2010Prop35
280
     0
102
RTVSPost2010PropOp35
 70
     1
102
RTVSPost2010Prop36
280
     0
102
RTVSPost2010PropOp36
 70
     1
102
RTVSPost2010Prop37
 90
       50
102
RTVSPost2010PropOp37
 70
     1
102
RTVSPost2010Prop38
140
0.0
102
RTVSPost2010PropOp38
 70
     1
102
RTVSPost2010Prop39
140
1.0
102
RTVSPost2010PropOp39
 70
     1
102
RTVSPost2010Prop40
 90
        0
102
RTVSPost2010PropOp40
 70
     1
102
RTVSPost2010Prop41ColorIndex
 90
       18
102
RTVSPost2010Prop41ColorRGB
 90
        0
102
RTVSPost2010PropOp41
 70
     1
102
RTVSPost2010Prop42
 90
       50
102
RTVSPost2010PropOp42
 70
     1
102
RTVSPost2010Prop43
 90
        3
102
RTVSPost2010PropOp43
 70
     1
102
RTVSPost2010Prop44ColorIndex
 90
        5
102
RTVSPost2010Prop44ColorRGB
 90
      255
102
RTVSPost2010PropOp44
 70
     1
102
RTVSPost2010Prop45
280
     0
102
RTVSPost2010PropOp45
 70
     1
102
RTVSPost2010Prop46
 90
       50
102
RTVSPost2010PropOp46
 70
     1
102
RTVSPost2010Prop47
 90
       50
102
RTVSPost2010PropOp47
 70
     1
102
RTVSPost2010Prop48
 90
       50
102
RTVSPost2010PropOp48
 70
     1
102
RTVSPost2010Prop49
280
     0
102
RTVSPost2010PropOp49
 70
     1
102
RTVSPost2010Prop50
 90
       50
102
RTVSPost2010PropOp50
 70
     1
102
RTVSPost2010Prop51ColorIndex
 90
      256
102
RTVSPost2010Prop51ColorRGB
 90
-16777216
102
RTVSPost2010PropOp51
 70
     0
102
RTVSPost2010Prop52
140
1.0
102
RTVSPost2010PropOp52
 70
     0
102
RTVSPost2010Prop53
 90
        2
102
RTVSPost2010PropOp53
 70
     1
102
RTVSPost2010Prop54
  1
strokes_ogs.tif
102
RTVSPost2010PropOp54
 70
     1
102
RTVSPost2010Prop55
280
     0
102
RTVSPost2010PropOp55
 70
     1
102
RTVSPost2010Prop56
140
1.0
102
RTVSPost2010PropOp56
 70
     1
102
RTVSPost2010Prop57
140
1.0
102
RTVSPost2010PropOp57
 70
     1
  0
XRECORD
  5
351
102
{ACAD_REACTORS
330
350
102
}
330
350
100
AcDbXrecord
280
     1
102
RTVSPropertyOp0
 70
     1
102
RTVSPropertyOp1
 70
     1
102
RTVSPropertyOp2
 70
     1
102
RTVSPropertyOp3
 70
     1
102
RTVSPropertyOp4
 70
     1
102
RTVSPropertyOp5
 70
     1
102
RTVSPropertyOp6
 70
     1
102
RTVSPropertyOp7
 70
     1
102
RTVSPropertyOp8
 70
     1
102
RTVSPropertyOp9
 70
     1
102
RTVSPropertyOp10
 70
     1
102
RTVSPropertyOp11
 70
     1
102
RTVSPropertyOp12
 70
     1
102
RTVSPropertyOp13
 70
     1
102
RTVSPropertyOp14
 70
     1
102
RTVSPropertyOp15
 70
     1
102
RTVSPropertyOp16
 70
     1
102
RTVSPropertyOp17
 70
     1
102
RTVSPropertyOp18
 70
     1
102
RTVSPropertyOp19
 70
     1
102
RTVSPropertyOp20
 70
     1
102
RTVSPropertyOp21
 70
     1
102
RTVSPropertyOp22
 70
     1
102
RTVSPropertyOp23
 70
     1
102
RTVSPropertyOp24
 70
     1
102
RTVSPropertyOp25
 70
     1
102
RTVSPropertyOp26
 70
     1
102
RTVSPropertyOp27
 70
     1
102
RTVSPropertyOp28
 70
     1
102
RTVSPropertyOp29
 70
     1
102
RTVSPropertyOp30
 70
     1
102
RTVSPropertyOp31
 70
     1
102
RTVSPropertyOp32
 70
     1
102
RTVSPropertyOp33
 70
     1
102
RTVSPropertyOp34
 70
     1
102
RTVSPropertyOp35
 70
     1
102
RTVSPropertyOp36
 70
     1
102
RTVSPropertyOp37
 70
     1
102
RTVSPropertyOp38
 70
     1
102
RTVSPropertyOp39
 70
     1
102
RTVSPropertyOp40
 70
     1
102
RTVSPropertyOp41
 70
     1
102
RTVSPropertyOp42
 70
     1
102
RTVSPropertyOp43
 70
     1
102
RTVSPropertyOp44
 70
     1
102
RTVSPropertyOp45
 70
     1
102
RTVSPropertyOp46
 70
     1
102
RTVSPropertyOp47
 70
     1
102
RTVSPropertyOp48
 70
     1
102
RTVSPropertyOp49
 70
     1
102
RTVSPropertyOp50
 70
     1
102
RTVSPropertyOp51
 70
     0
102
RTVSPropertyOp52
 70
     0
102
RTVSPropertyOp53
 70
     1
102
RTVSPropertyOp54
 70
     1
102
RTVSPropertyOp55
 70
     1
102
RTVSPropertyOp56
 70
     1
102
RTVSPropertyOp57
 70
     1
102
RTVSPost2010Prop28
280
     0
102
RTVSPost2010PropOp28
 70
     1
102
RTVSPost2010Prop29
280
     1
102
RTVSPost2010PropOp29
 70
     1
102
RTVSPost2010Prop30
280
     1
102
RTVSPost2010PropOp30
 70
     1
102
RTVSPost2010Prop31
280
     0
102
RTVSPost2010PropOp31
 70
     1
102
RTVSPost2010Prop32
280
     0
102
RTVSPost2010PropOp32
 70
     1
102
RTVSPost2010Prop33
280
     0
102
RTVSPost2010PropOp33
 70
     1
102
RTVSPost2010Prop34
280
     0
102
RTVSPost2010PropOp34
 70
     1
102
RTVSPost2010Prop35
280
     0
102
RTVSPost2010PropOp35
 70
     1
102
RTVSPost2010Prop36
280
     0
102
RTVSPost2010PropOp36
 70
     1
102
RTVSPost2010Prop37
 90
       50
102
RTVSPost2010PropOp37
 70
     1
102
RTVSPost2010Prop38
140
0.0
102
RTVSPost2010PropOp38
 70
     1
102
RTVSPost2010Prop39
140
1.0
102
RTVSPost2010PropOp39
 70
     1
102
RTVSPost2010Prop40
 90
        0
102
RTVSPost2010PropOp40
 70
     1
102
RTVSPost2010Prop41ColorIndex
 90
       18
102
RTVSPost2010Prop41ColorRGB
 90
        0
102
RTVSPost2010PropOp41
 70
     1
102
RTVSPost2010Prop42
 90
       50
102
RTVSPost2010PropOp42
 70
     1
102
RTVSPost2010Prop43
 90
        3
102
RTVSPost2010PropOp43
 70
     1
102
RTVSPost2010Prop44ColorIndex
 90
        5
102
RTVSPost2010Prop44ColorRGB
 90
      255
102
RTVSPost2010PropOp44
 70
     1
102
RTVSPost2010Prop45
280
     0
102
RTVSPost2010PropOp45
 70
     1
102
RTVSPost2010Prop46
 90
       50
102
RTVSPost2010PropOp46
 70
     1
102
RTVSPost2010Prop47
 90
       50
102
RTVSPost2010PropOp47
 70
     1
102
RTVSPost2010Prop48
 90
       50
102
RTVSPost2010PropOp48
 70
     1
102
RTVSPost2010Prop49
280
     0
102
RTVSPost2010PropOp49
 70
     1
102
RTVSPost2010Prop50
 90
       50
102
RTVSPost2010PropOp50
 70
     1
102
RTVSPost2010Prop51ColorIndex
 90
      256
102
RTVSPost2010Prop51ColorRGB
 90
-16777216
102
RTVSPost2010PropOp51
 70
     0
102
RTVSPost2010Prop52
140
1.0
102
RTVSPost2010PropOp52
 70
     0
102
RTVSPost2010Prop53
 90
        2
102
RTVSPost2010PropOp53
 70
     1
102
RTVSPost2010Prop54
  1
strokes_ogs.tif
102
RTVSPost2010PropOp54
 70
     1
102
RTVSPost2010Prop55
280
     0
102
RTVSPost2010PropOp55
 70
     1
102
RTVSPost2010Prop56
140
1.0
102
RTVSPost2010PropOp56
 70
     1
102
RTVSPost2010Prop57
140
1.0
102
RTVSPost2010PropOp57
 70
     1
  0
XRECORD
  5
357
102
{ACAD_REACTORS
330
356
102
}
330
356
100
AcDbXrecord
280
     1
102
RTVSPropertyOp0
 70
     1
102
RTVSPropertyOp1
 70
     1
102
RTVSPropertyOp2
 70
     1
102
RTVSPropertyOp3
 70
     1
102
RTVSPropertyOp4
 70
     1
102
RTVSPropertyOp5
 70
     1
102
RTVSPropertyOp6
 70
     1
102
RTVSPropertyOp7
 70
     1
102
RTVSPropertyOp8
 70
     1
102
RTVSPropertyOp9
 70
     1
102
RTVSPropertyOp10
 70
     1
102
RTVSPropertyOp11
 70
     1
102
RTVSPropertyOp12
 70
     1
102
RTVSPropertyOp13
 70
     1
102
RTVSPropertyOp14
 70
     1
102
RTVSPropertyOp15
 70
     1
102
RTVSPropertyOp16
 70
     1
102
RTVSPropertyOp17
 70
     1
102
RTVSPropertyOp18
 70
     1
102
RTVSPropertyOp19
 70
     1
102
RTVSPropertyOp20
 70
     1
102
RTVSPropertyOp21
 70
     1
102
RTVSPropertyOp22
 70
     1
102
RTVSPropertyOp23
 70
     1
102
RTVSPropertyOp24
 70
     1
102
RTVSPropertyOp25
 70
     1
102
RTVSPropertyOp26
 70
     1
102
RTVSPropertyOp27
 70
     1
102
RTVSPropertyOp28
 70
     1
102
RTVSPropertyOp29
 70
     1
102
RTVSPropertyOp30
 70
     1
102
RTVSPropertyOp31
 70
     1
102
RTVSPropertyOp32
 70
     1
102
RTVSPropertyOp33
 70
     1
102
RTVSPropertyOp34
 70
     1
102
RTVSPropertyOp35
 70
     1
102
RTVSPropertyOp36
 70
     1
102
RTVSPropertyOp37
 70
     1
102
RTVSPropertyOp38
 70
     1
102
RTVSPropertyOp39
 70
     1
102
RTVSPropertyOp40
 70
     1
102
RTVSPropertyOp41
 70
     1
102
RTVSPropertyOp42
 70
     1
102
RTVSPropertyOp43
 70
     1
102
RTVSPropertyOp44
 70
     1
102
RTVSPropertyOp45
 70
     1
102
RTVSPropertyOp46
 70
     1
102
RTVSPropertyOp47
 70
     1
102
RTVSPropertyOp48
 70
     1
102
RTVSPropertyOp49
 70
     1
102
RTVSPropertyOp50
 70
     1
102
RTVSPropertyOp51
 70
     0
102
RTVSPropertyOp52
 70
     0
102
RTVSPropertyOp53
 70
     1
102
RTVSPropertyOp54
 70
     1
102
RTVSPropertyOp55
 70
     1
102
RTVSPropertyOp56
 70
     1
102
RTVSPropertyOp57
 70
     1
102
RTVSPost2010Prop28
280
     0
102
RTVSPost2010PropOp28
 70
     1
102
RTVSPost2010Prop29
280
     1
102
RTVSPost2010PropOp29
 70
     1
102
RTVSPost2010Prop30
280
     1
102
RTVSPost2010PropOp30
 70
     1
102
RTVSPost2010Prop31
280
     0
102
RTVSPost2010PropOp31
 70
     1
102
RTVSPost2010Prop32
280
     0
102
RTVSPost2010PropOp32
 70
     1
102
RTVSPost2010Prop33
280
     0
102
RTVSPost2010PropOp33
 70
     1
102
RTVSPost2010Prop34
280
     0
102
RTVSPost2010PropOp34
 70
     1
102
RTVSPost2010Prop35
280
     0
102
RTVSPost2010PropOp35
 70
     1
102
RTVSPost2010Prop36
280
     0
102
RTVSPost2010PropOp36
 70
     1
102
RTVSPost2010Prop37
 90
       50
102
RTVSPost2010PropOp37
 70
     1
102
RTVSPost2010Prop38
140
0.0
102
RTVSPost2010PropOp38
 70
     1
102
RTVSPost2010Prop39
140
1.0
102
RTVSPost2010PropOp39
 70
     1
102
RTVSPost2010Prop40
 90
        0
102
RTVSPost2010PropOp40
 70
     1
102
RTVSPost2010Prop41ColorIndex
 90
       18
102
RTVSPost2010Prop41ColorRGB
 90
        0
102
RTVSPost2010PropOp41
 70
     1
102
RTVSPost2010Prop42
 90
       50
102
RTVSPost2010PropOp42
 70
     1
102
RTVSPost2010Prop43
 90
        3
102
RTVSPost2010PropOp43
 70
     1
102
RTVSPost2010Prop44ColorIndex
 90
        5
102
RTVSPost2010Prop44ColorRGB
 90
      255
102
RTVSPost2010PropOp44
 70
     1
102
RTVSPost2010Prop45
280
     0
102
RTVSPost2010PropOp45
 70
     1
102
RTVSPost2010Prop46
 90
       50
102
RTVSPost2010PropOp46
 70
     1
102
RTVSPost2010Prop47
 90
       50
102
RTVSPost2010PropOp47
 70
     1
102
RTVSPost2010Prop48
 90
       50
102
RTVSPost2010PropOp48
 70
     1
102
RTVSPost2010Prop49
280
     0
102
RTVSPost2010PropOp49
 70
     1
102
RTVSPost2010Prop50
 90
       50
102
RTVSPost2010PropOp50
 70
     1
102
RTVSPost2010Prop51ColorIndex
 90
      256
102
RTVSPost2010Prop51ColorRGB
 90
-16777216
102
RTVSPost2010PropOp51
 70
     0
102
RTVSPost2010Prop52
140
1.0
102
RTVSPost2010PropOp52
 70
     0
102
RTVSPost2010Prop53
 90
        2
102
RTVSPost2010PropOp53
 70
     1
102
RTVSPost2010Prop54
  1
strokes_ogs.tif
102
RTVSPost2010PropOp54
 70
     1
102
RTVSPost2010Prop55
280
     0
102
RTVSPost2010PropOp55
 70
     1
102
RTVSPost2010Prop56
140
1.0
102
RTVSPost2010PropOp56
 70
     1
102
RTVSPost2010Prop57
140
1.0
102
RTVSPost2010PropOp57
 70
     1
  0
XRECORD
  5
36B
102
{ACAD_REACTORS
330
36A
102
}
330
36A
100
AcDbXrecord
280
     1
102
RTVSPropertyOp0
 70
     0
102
RTVSPropertyOp1
 70
     0
102
RTVSPropertyOp2
 70
     0
102
RTVSPropertyOp3
 70
     0
102
RTVSPropertyOp4
 70
     0
102
RTVSPropertyOp5
 70
     0
102
RTVSPropertyOp6
 70
     0
102
RTVSPropertyOp7
 70
     0
102
RTVSPropertyOp8
 70
     0
102
RTVSPropertyOp9
 70
     0
102
RTVSPropertyOp10
 70
     0
102
RTVSPropertyOp11
 70
     0
102
RTVSPropertyOp12
 70
     0
102
RTVSPropertyOp13
 70
     0
102
RTVSPropertyOp14
 70
     2
102
RTVSPropertyOp15
 70
     0
102
RTVSPropertyOp16
 70
     0
102
RTVSPropertyOp17
 70
     0
102
RTVSPropertyOp18
 70
     0
102
RTVSPropertyOp19
 70
     0
102
RTVSPropertyOp20
 70
     0
102
RTVSPropertyOp21
 70
     0
102
RTVSPropertyOp22
 70
     0
102
RTVSPropertyOp23
 70
     0
102
RTVSPropertyOp24
 70
     0
102
RTVSPropertyOp25
 70
     0
102
RTVSPropertyOp26
 70
     0
102
RTVSPropertyOp27
 70
     0
102
RTVSPropertyOp28
 70
     0
102
RTVSPropertyOp29
 70
     0
102
RTVSPropertyOp30
 70
     0
102
RTVSPropertyOp31
 70
     0
102
RTVSPropertyOp32
 70
     0
102
RTVSPropertyOp33
 70
     0
102
RTVSPropertyOp34
 70
     0
102
RTVSPropertyOp35
 70
     0
102
RTVSPropertyOp36
 70
     0
102
RTVSPropertyOp37
 70
     0
102
RTVSPropertyOp38
 70
     0
102
RTVSPropertyOp39
 70
     0
102
RTVSPropertyOp40
 70
     0
102
RTVSPropertyOp41
 70
     0
102
RTVSPropertyOp42
 70
     0
102
RTVSPropertyOp43
 70
     0
102
RTVSPropertyOp44
 70
     0
102
RTVSPropertyOp45
 70
     0
102
RTVSPropertyOp46
 70
     0
102
RTVSPropertyOp47
 70
     0
102
RTVSPropertyOp48
 70
     0
102
RTVSPropertyOp49
 70
     0
102
RTVSPropertyOp50
 70
     0
102
RTVSPropertyOp51
 70
     0
102
RTVSPropertyOp52
 70
     0
102
RTVSPropertyOp53
 70
     0
102
RTVSPropertyOp54
 70
     0
102
RTVSPropertyOp55
 70
     0
102
RTVSPropertyOp56
 70
     0
102
RTVSPropertyOp57
 70
     0
102
RTVSPost2010Prop28
280
     0
102
RTVSPost2010PropOp28
 70
     0
102
RTVSPost2010Prop29
280
     1
102
RTVSPost2010PropOp29
 70
     0
102
RTVSPost2010Prop30
280
     1
102
RTVSPost2010PropOp30
 70
     0
102
RTVSPost2010Prop31
280
     0
102
RTVSPost2010PropOp31
 70
     0
102
RTVSPost2010Prop32
280
     0
102
RTVSPost2010PropOp32
 70
     0
102
RTVSPost2010Prop33
280
     0
102
RTVSPost2010PropOp33
 70
     0
102
RTVSPost2010Prop34
280
     0
102
RTVSPost2010PropOp34
 70
     0
102
RTVSPost2010Prop35
280
     0
102
RTVSPost2010PropOp35
 70
     0
102
RTVSPost2010Prop36
280
     0
102
RTVSPost2010PropOp36
 70
     0
102
RTVSPost2010Prop37
 90
       50
102
RTVSPost2010PropOp37
 70
     0
102
RTVSPost2010Prop38
140
0.0
102
RTVSPost2010PropOp38
 70
     0
102
RTVSPost2010Prop39
140
1.0
102
RTVSPost2010PropOp39
 70
     0
102
RTVSPost2010Prop40
 90
        0
102
RTVSPost2010PropOp40
 70
     0
102
RTVSPost2010Prop41ColorIndex
 90
       18
102
RTVSPost2010Prop41ColorRGB
 90
        0
102
RTVSPost2010PropOp41
 70
     0
102
RTVSPost2010Prop42
 90
       50
102
RTVSPost2010PropOp42
 70
     0
102
RTVSPost2010Prop43
 90
        3
102
RTVSPost2010PropOp43
 70
     0
102
RTVSPost2010Prop44ColorIndex
 90
        5
102
RTVSPost2010Prop44ColorRGB
 90
      255
102
RTVSPost2010PropOp44
 70
     0
102
RTVSPost2010Prop45
280
     0
102
RTVSPost2010PropOp45
 70
     0
102
RTVSPost2010Prop46
 90
       50
102
RTVSPost2010PropOp46
 70
     0
102
RTVSPost2010Prop47
 90
       50
102
RTVSPost2010PropOp47
 70
     0
102
RTVSPost2010Prop48
 90
       50
102
RTVSPost2010PropOp48
 70
     0
102
RTVSPost2010Prop49
280
     0
102
RTVSPost2010PropOp49
 70
     0
102
RTVSPost2010Prop50
 90
       50
102
RTVSPost2010PropOp50
 70
     0
102
RTVSPost2010Prop51ColorIndex
 90
      256
102
RTVSPost2010Prop51ColorRGB
 90
-16777216
102
RTVSPost2010PropOp51
 70
     0
102
RTVSPost2010Prop52
140
1.0
102
RTVSPost2010PropOp52
 70
     0
102
RTVSPost2010Prop53
 90
        2
102
RTVSPost2010PropOp53
 70
     0
102
RTVSPost2010Prop54
  1
strokes_ogs.tif
102
RTVSPost2010PropOp54
 70
     0
102
RTVSPost2010Prop55
280
     0
102
RTVSPost2010PropOp55
 70
     0
102
RTVSPost2010Prop56
140
1.0
102
RTVSPost2010PropOp56
 70
     0
102
RTVSPost2010Prop57
140
1.0
102
RTVSPost2010PropOp57
 70
     0
  0
XRECORD
  5
365
102
{ACAD_REACTORS
330
364
102
}
330
364
100
AcDbXrecord
280
     1
102
RTVSPropertyOp0
 70
     1
102
RTVSPropertyOp1
 70
     1
102
RTVSPropertyOp2
 70
     1
102
RTVSPropertyOp3
 70
     1
102
RTVSPropertyOp4
 70
     1
102
RTVSPropertyOp5
 70
     1
102
RTVSPropertyOp6
 70
     1
102
RTVSPropertyOp7
 70
     1
102
RTVSPropertyOp8
 70
     1
102
RTVSPropertyOp9
 70
     1
102
RTVSPropertyOp10
 70
     1
102
RTVSPropertyOp11
 70
     1
102
RTVSPropertyOp12
 70
     1
102
RTVSPropertyOp13
 70
     1
102
RTVSPropertyOp14
 70
     1
102
RTVSPropertyOp15
 70
     1
102
RTVSPropertyOp16
 70
     1
102
RTVSPropertyOp17
 70
     1
102
RTVSPropertyOp18
 70
     1
102
RTVSPropertyOp19
 70
     1
102
RTVSPropertyOp20
 70
     1
102
RTVSPropertyOp21
 70
     1
102
RTVSPropertyOp22
 70
     1
102
RTVSPropertyOp23
 70
     1
102
RTVSPropertyOp24
 70
     1
102
RTVSPropertyOp25
 70
     1
102
RTVSPropertyOp26
 70
     1
102
RTVSPropertyOp27
 70
     1
102
RTVSPropertyOp28
 70
     1
102
RTVSPropertyOp29
 70
     1
102
RTVSPropertyOp30
 70
     1
102
RTVSPropertyOp31
 70
     1
102
RTVSPropertyOp32
 70
     1
102
RTVSPropertyOp33
 70
     1
102
RTVSPropertyOp34
 70
     1
102
RTVSPropertyOp35
 70
     1
102
RTVSPropertyOp36
 70
     1
102
RTVSPropertyOp37
 70
     1
102
RTVSPropertyOp38
 70
     1
102
RTVSPropertyOp39
 70
     1
102
RTVSPropertyOp40
 70
     1
102
RTVSPropertyOp41
 70
     1
102
RTVSPropertyOp42
 70
     1
102
RTVSPropertyOp43
 70
     1
102
RTVSPropertyOp44
 70
     1
102
RTVSPropertyOp45
 70
     1
102
RTVSPropertyOp46
 70
     1
102
RTVSPropertyOp47
 70
     1
102
RTVSPropertyOp48
 70
     1
102
RTVSPropertyOp49
 70
     1
102
RTVSPropertyOp50
 70
     1
102
RTVSPropertyOp51
 70
     0
102
RTVSPropertyOp52
 70
     0
102
RTVSPropertyOp53
 70
     1
102
RTVSPropertyOp54
 70
     1
102
RTVSPropertyOp55
 70
     1
102
RTVSPropertyOp56
 70
     1
102
RTVSPropertyOp57
 70
     1
102
RTVSPost2010Prop28
280
     0
102
RTVSPost2010PropOp28
 70
     1
102
RTVSPost2010Prop29
280
     1
102
RTVSPost2010PropOp29
 70
     1
102
RTVSPost2010Prop30
280
     1
102
RTVSPost2010PropOp30
 70
     1
102
RTVSPost2010Prop31
280
     0
102
RTVSPost2010PropOp31
 70
     1
102
RTVSPost2010Prop32
280
     0
102
RTVSPost2010PropOp32
 70
     1
102
RTVSPost2010Prop33
280
     0
102
RTVSPost2010PropOp33
 70
     1
102
RTVSPost2010Prop34
280
     0
102
RTVSPost2010PropOp34
 70
     1
102
RTVSPost2010Prop35
280
     0
102
RTVSPost2010PropOp35
 70
     1
102
RTVSPost2010Prop36
280
     0
102
RTVSPost2010PropOp36
 70
     1
102
RTVSPost2010Prop37
 90
       50
102
RTVSPost2010PropOp37
 70
     1
102
RTVSPost2010Prop38
140
0.0
102
RTVSPost2010PropOp38
 70
     1
102
RTVSPost2010Prop39
140
1.0
102
RTVSPost2010PropOp39
 70
     1
102
RTVSPost2010Prop40
 90
        0
102
RTVSPost2010PropOp40
 70
     1
102
RTVSPost2010Prop41ColorIndex
 90
       18
102
RTVSPost2010Prop41ColorRGB
 90
        0
102
RTVSPost2010PropOp41
 70
     1
102
RTVSPost2010Prop42
 90
       50
102
RTVSPost2010PropOp42
 70
     1
102
RTVSPost2010Prop43
 90
        3
102
RTVSPost2010PropOp43
 70
     1
102
RTVSPost2010Prop44ColorIndex
 90
        5
102
RTVSPost2010Prop44ColorRGB
 90
      255
102
RTVSPost2010PropOp44
 70
     1
102
RTVSPost2010Prop45
280
     0
102
RTVSPost2010PropOp45
 70
     1
102
RTVSPost2010Prop46
 90
       50
102
RTVSPost2010PropOp46
 70
     1
102
RTVSPost2010Prop47
 90
       50
102
RTVSPost2010PropOp47
 70
     1
102
RTVSPost2010Prop48
 90
       50
102
RTVSPost2010PropOp48
 70
     1
102
RTVSPost2010Prop49
280
     0
102
RTVSPost2010PropOp49
 70
     1
102
RTVSPost2010Prop50
 90
       50
102
RTVSPost2010PropOp50
 70
     1
102
RTVSPost2010Prop51ColorIndex
 90
      256
102
RTVSPost2010Prop51ColorRGB
 90
-16777216
102
RTVSPost2010PropOp51
 70
     0
102
RTVSPost2010Prop52
140
1.0
102
RTVSPost2010PropOp52
 70
     0
102
RTVSPost2010Prop53
 90
        2
102
RTVSPost2010PropOp53
 70
     1
102
RTVSPost2010Prop54
  1
strokes_ogs.tif
102
RTVSPost2010PropOp54
 70
     1
102
RTVSPost2010Prop55
280
     0
102
RTVSPost2010PropOp55
 70
     1
102
RTVSPost2010Prop56
140
1.0
102
RTVSPost2010PropOp56
 70
     1
102
RTVSPost2010Prop57
140
1.0
102
RTVSPost2010PropOp57
 70
     1
  0
XRECORD
  5
36D
102
{ACAD_REACTORS
330
36C
102
}
330
36C
100
AcDbXrecord
280
     1
102
RTVSPropertyOp0
 70
     0
102
RTVSPropertyOp1
 70
     0
102
RTVSPropertyOp2
 70
     0
102
RTVSPropertyOp3
 70
     0
102
RTVSPropertyOp4
 70
     0
102
RTVSPropertyOp5
 70
     0
102
RTVSPropertyOp6
 70
     0
102
RTVSPropertyOp7
 70
     0
102
RTVSPropertyOp8
 70
     0
102
RTVSPropertyOp9
 70
     0
102
RTVSPropertyOp10
 70
     0
102
RTVSPropertyOp11
 70
     0
102
RTVSPropertyOp12
 70
     0
102
RTVSPropertyOp13
 70
     0
102
RTVSPropertyOp14
 70
     2
102
RTVSPropertyOp15
 70
     0
102
RTVSPropertyOp16
 70
     0
102
RTVSPropertyOp17
 70
     0
102
RTVSPropertyOp18
 70
     0
102
RTVSPropertyOp19
 70
     0
102
RTVSPropertyOp20
 70
     0
102
RTVSPropertyOp21
 70
     0
102
RTVSPropertyOp22
 70
     0
102
RTVSPropertyOp23
 70
     0
102
RTVSPropertyOp24
 70
     0
102
RTVSPropertyOp25
 70
     0
102
RTVSPropertyOp26
 70
     0
102
RTVSPropertyOp27
 70
     0
102
RTVSPropertyOp28
 70
     0
102
RTVSPropertyOp29
 70
     0
102
RTVSPropertyOp30
 70
     0
102
RTVSPropertyOp31
 70
     0
102
RTVSPropertyOp32
 70
     0
102
RTVSPropertyOp33
 70
     0
102
RTVSPropertyOp34
 70
     0
102
RTVSPropertyOp35
 70
     0
102
RTVSPropertyOp36
 70
     0
102
RTVSPropertyOp37
 70
     0
102
RTVSPropertyOp38
 70
     0
102
RTVSPropertyOp39
 70
     0
102
RTVSPropertyOp40
 70
     0
102
RTVSPropertyOp41
 70
     0
102
RTVSPropertyOp42
 70
     0
102
RTVSPropertyOp43
 70
     0
102
RTVSPropertyOp44
 70
     0
102
RTVSPropertyOp45
 70
     0
102
RTVSPropertyOp46
 70
     0
102
RTVSPropertyOp47
 70
     0
102
RTVSPropertyOp48
 70
     0
102
RTVSPropertyOp49
 70
     0
102
RTVSPropertyOp50
 70
     0
102
RTVSPropertyOp51
 70
     0
102
RTVSPropertyOp52
 70
     0
102
RTVSPropertyOp53
 70
     0
102
RTVSPropertyOp54
 70
     0
102
RTVSPropertyOp55
 70
     0
102
RTVSPropertyOp56
 70
     0
102
RTVSPropertyOp57
 70
     0
102
RTVSPost2010Prop28
280
     0
102
RTVSPost2010PropOp28
 70
     0
102
RTVSPost2010Prop29
280
     1
102
RTVSPost2010PropOp29
 70
     0
102
RTVSPost2010Prop30
280
     1
102
RTVSPost2010PropOp30
 70
     0
102
RTVSPost2010Prop31
280
     0
102
RTVSPost2010PropOp31
 70
     0
102
RTVSPost2010Prop32
280
     0
102
RTVSPost2010PropOp32
 70
     0
102
RTVSPost2010Prop33
280
     0
102
RTVSPost2010PropOp33
 70
     0
102
RTVSPost2010Prop34
280
     0
102
RTVSPost2010PropOp34
 70
     0
102
RTVSPost2010Prop35
280
     0
102
RTVSPost2010PropOp35
 70
     0
102
RTVSPost2010Prop36
280
     0
102
RTVSPost2010PropOp36
 70
     0
102
RTVSPost2010Prop37
 90
       50
102
RTVSPost2010PropOp37
 70
     0
102
RTVSPost2010Prop38
140
0.0
102
RTVSPost2010PropOp38
 70
     0
102
RTVSPost2010Prop39
140
1.0
102
RTVSPost2010PropOp39
 70
     0
102
RTVSPost2010Prop40
 90
        0
102
RTVSPost2010PropOp40
 70
     0
102
RTVSPost2010Prop41ColorIndex
 90
       18
102
RTVSPost2010Prop41ColorRGB
 90
        0
102
RTVSPost2010PropOp41
 70
     0
102
RTVSPost2010Prop42
 90
       50
102
RTVSPost2010PropOp42
 70
     0
102
RTVSPost2010Prop43
 90
        3
102
RTVSPost2010PropOp43
 70
     0
102
RTVSPost2010Prop44ColorIndex
 90
        5
102
RTVSPost2010Prop44ColorRGB
 90
      255
102
RTVSPost2010PropOp44
 70
     0
102
RTVSPost2010Prop45
280
     0
102
RTVSPost2010PropOp45
 70
     0
102
RTVSPost2010Prop46
 90
       50
102
RTVSPost2010PropOp46
 70
     0
102
RTVSPost2010Prop47
 90
       50
102
RTVSPost2010PropOp47
 70
     0
102
RTVSPost2010Prop48
 90
       50
102
RTVSPost2010PropOp48
 70
     0
102
RTVSPost2010Prop49
280
     0
102
RTVSPost2010PropOp49
 70
     0
102
RTVSPost2010Prop50
 90
       50
102
RTVSPost2010PropOp50
 70
     0
102
RTVSPost2010Prop51ColorIndex
 90
      256
102
RTVSPost2010Prop51ColorRGB
 90
-16777216
102
RTVSPost2010PropOp51
 70
     0
102
RTVSPost2010Prop52
140
1.0
102
RTVSPost2010PropOp52
 70
     0
102
RTVSPost2010Prop53
 90
        2
102
RTVSPost2010PropOp53
 70
     0
102
RTVSPost2010Prop54
  1
strokes_ogs.tif
102
RTVSPost2010PropOp54
 70
     0
102
RTVSPost2010Prop55
280
     0
102
RTVSPost2010PropOp55
 70
     0
102
RTVSPost2010Prop56
140
1.0
102
RTVSPost2010PropOp56
 70
     0
102
RTVSPost2010Prop57
140
1.0
102
RTVSPost2010PropOp57
 70
     0
  0
XRECORD
  5
35B
102
{ACAD_REACTORS
330
35A
102
}
330
35A
100
AcDbXrecord
280
     1
102
RTVSPropertyOp0
 70
     1
102
RTVSPropertyOp1
 70
     1
102
RTVSPropertyOp2
 70
     1
102
RTVSPropertyOp3
 70
     1
102
RTVSPropertyOp4
 70
     1
102
RTVSPropertyOp5
 70
     1
102
RTVSPropertyOp6
 70
     1
102
RTVSPropertyOp7
 70
     1
102
RTVSPropertyOp8
 70
     1
102
RTVSPropertyOp9
 70
     1
102
RTVSPropertyOp10
 70
     1
102
RTVSPropertyOp11
 70
     1
102
RTVSPropertyOp12
 70
     1
102
RTVSPropertyOp13
 70
     1
102
RTVSPropertyOp14
 70
     1
102
RTVSPropertyOp15
 70
     1
102
RTVSPropertyOp16
 70
     1
102
RTVSPropertyOp17
 70
     1
102
RTVSPropertyOp18
 70
     1
102
RTVSPropertyOp19
 70
     1
102
RTVSPropertyOp20
 70
     1
102
RTVSPropertyOp21
 70
     1
102
RTVSPropertyOp22
 70
     1
102
RTVSPropertyOp23
 70
     1
102
RTVSPropertyOp24
 70
     1
102
RTVSPropertyOp25
 70
     1
102
RTVSPropertyOp26
 70
     1
102
RTVSPropertyOp27
 70
     1
102
RTVSPropertyOp28
 70
     1
102
RTVSPropertyOp29
 70
     1
102
RTVSPropertyOp30
 70
     1
102
RTVSPropertyOp31
 70
     1
102
RTVSPropertyOp32
 70
     1
102
RTVSPropertyOp33
 70
     1
102
RTVSPropertyOp34
 70
     1
102
RTVSPropertyOp35
 70
     1
102
RTVSPropertyOp36
 70
     1
102
RTVSPropertyOp37
 70
     1
102
RTVSPropertyOp38
 70
     1
102
RTVSPropertyOp39
 70
     1
102
RTVSPropertyOp40
 70
     1
102
RTVSPropertyOp41
 70
     1
102
RTVSPropertyOp42
 70
     1
102
RTVSPropertyOp43
 70
     1
102
RTVSPropertyOp44
 70
     1
102
RTVSPropertyOp45
 70
     1
102
RTVSPropertyOp46
 70
     1
102
RTVSPropertyOp47
 70
     1
102
RTVSPropertyOp48
 70
     1
102
RTVSPropertyOp49
 70
     1
102
RTVSPropertyOp50
 70
     1
102
RTVSPropertyOp51
 70
     0
102
RTVSPropertyOp52
 70
     0
102
RTVSPropertyOp53
 70
     1
102
RTVSPropertyOp54
 70
     1
102
RTVSPropertyOp55
 70
     1
102
RTVSPropertyOp56
 70
     1
102
RTVSPropertyOp57
 70
     1
102
RTVSPost2010Prop28
280
     0
102
RTVSPost2010PropOp28
 70
     1
102
RTVSPost2010Prop29
280
     1
102
RTVSPost2010PropOp29
 70
     1
102
RTVSPost2010Prop30
280
     1
102
RTVSPost2010PropOp30
 70
     1
102
RTVSPost2010Prop31
280
     0
102
RTVSPost2010PropOp31
 70
     1
102
RTVSPost2010Prop32
280
     0
102
RTVSPost2010PropOp32
 70
     1
102
RTVSPost2010Prop33
280
     0
102
RTVSPost2010PropOp33
 70
     1
102
RTVSPost2010Prop34
280
     0
102
RTVSPost2010PropOp34
 70
     1
102
RTVSPost2010Prop35
280
     0
102
RTVSPost2010PropOp35
 70
     1
102
RTVSPost2010Prop36
280
     0
102
RTVSPost2010PropOp36
 70
     1
102
RTVSPost2010Prop37
 90
       50
102
RTVSPost2010PropOp37
 70
     1
102
RTVSPost2010Prop38
140
0.0
102
RTVSPost2010PropOp38
 70
     1
102
RTVSPost2010Prop39
140
1.0
102
RTVSPost2010PropOp39
 70
     1
102
RTVSPost2010Prop40
 90
        0
102
RTVSPost2010PropOp40
 70
     1
102
RTVSPost2010Prop41ColorIndex
 90
       18
102
RTVSPost2010Prop41ColorRGB
 90
        0
102
RTVSPost2010PropOp41
 70
     1
102
RTVSPost2010Prop42
 90
       50
102
RTVSPost2010PropOp42
 70
     1
102
RTVSPost2010Prop43
 90
        3
102
RTVSPost2010PropOp43
 70
     1
102
RTVSPost2010Prop44ColorIndex
 90
        5
102
RTVSPost2010Prop44ColorRGB
 90
      255
102
RTVSPost2010PropOp44
 70
     1
102
RTVSPost2010Prop45
280
     0
102
RTVSPost2010PropOp45
 70
     1
102
RTVSPost2010Prop46
 90
       50
102
RTVSPost2010PropOp46
 70
     1
102
RTVSPost2010Prop47
 90
       50
102
RTVSPost2010PropOp47
 70
     1
102
RTVSPost2010Prop48
 90
       50
102
RTVSPost2010PropOp48
 70
     1
102
RTVSPost2010Prop49
280
     0
102
RTVSPost2010PropOp49
 70
     1
102
RTVSPost2010Prop50
 90
       50
102
RTVSPost2010PropOp50
 70
     1
102
RTVSPost2010Prop51ColorIndex
 90
      256
102
RTVSPost2010Prop51ColorRGB
 90
-16777216
102
RTVSPost2010PropOp51
 70
     0
102
RTVSPost2010Prop52
140
1.0
102
RTVSPost2010PropOp52
 70
     0
102
RTVSPost2010Prop53
 90
        2
102
RTVSPost2010PropOp53
 70
     1
102
RTVSPost2010Prop54
  1
strokes_ogs.tif
102
RTVSPost2010PropOp54
 70
     1
102
RTVSPost2010Prop55
280
     0
102
RTVSPost2010PropOp55
 70
     1
102
RTVSPost2010Prop56
140
1.0
102
RTVSPost2010PropOp56
 70
     1
102
RTVSPost2010Prop57
140
1.0
102
RTVSPost2010PropOp57
 70
     1
  0
XRECORD
  5
379
102
{ACAD_REACTORS
330
378
102
}
330
378
100
AcDbXrecord
280
     1
102
RTVSPropertyOp0
 70
     1
102
RTVSPropertyOp1
 70
     1
102
RTVSPropertyOp2
 70
     1
102
RTVSPropertyOp3
 70
     1
102
RTVSPropertyOp4
 70
     1
102
RTVSPropertyOp5
 70
     1
102
RTVSPropertyOp6
 70
     1
102
RTVSPropertyOp7
 70
     1
102
RTVSPropertyOp8
 70
     1
102
RTVSPropertyOp9
 70
     1
102
RTVSPropertyOp10
 70
     1
102
RTVSPropertyOp11
 70
     1
102
RTVSPropertyOp12
 70
     1
102
RTVSPropertyOp13
 70
     1
102
RTVSPropertyOp14
 70
     1
102
RTVSPropertyOp15
 70
     1
102
RTVSPropertyOp16
 70
     1
102
RTVSPropertyOp17
 70
     1
102
RTVSPropertyOp18
 70
     1
102
RTVSPropertyOp19
 70
     1
102
RTVSPropertyOp20
 70
     1
102
RTVSPropertyOp21
 70
     1
102
RTVSPropertyOp22
 70
     1
102
RTVSPropertyOp23
 70
     1
102
RTVSPropertyOp24
 70
     1
102
RTVSPropertyOp25
 70
     1
102
RTVSPropertyOp26
 70
     1
102
RTVSPropertyOp27
 70
     1
102
RTVSPropertyOp28
 70
     1
102
RTVSPropertyOp29
 70
     1
102
RTVSPropertyOp30
 70
     1
102
RTVSPropertyOp31
 70
     1
102
RTVSPropertyOp32
 70
     1
102
RTVSPropertyOp33
 70
     1
102
RTVSPropertyOp34
 70
     1
102
RTVSPropertyOp35
 70
     1
102
RTVSPropertyOp36
 70
     1
102
RTVSPropertyOp37
 70
     1
102
RTVSPropertyOp38
 70
     1
102
RTVSPropertyOp39
 70
     1
102
RTVSPropertyOp40
 70
     1
102
RTVSPropertyOp41
 70
     1
102
RTVSPropertyOp42
 70
     1
102
RTVSPropertyOp43
 70
     1
102
RTVSPropertyOp44
 70
     1
102
RTVSPropertyOp45
 70
     1
102
RTVSPropertyOp46
 70
     1
102
RTVSPropertyOp47
 70
     1
102
RTVSPropertyOp48
 70
     1
102
RTVSPropertyOp49
 70
     1
102
RTVSPropertyOp50
 70
     1
102
RTVSPropertyOp51
 70
     0
102
RTVSPropertyOp52
 70
     0
102
RTVSPropertyOp53
 70
     1
102
RTVSPropertyOp54
 70
     1
102
RTVSPropertyOp55
 70
     1
102
RTVSPropertyOp56
 70
     1
102
RTVSPropertyOp57
 70
     1
102
RTVSPost2010Prop28
280
     0
102
RTVSPost2010PropOp28
 70
     1
102
RTVSPost2010Prop29
280
     1
102
RTVSPost2010PropOp29
 70
     1
102
RTVSPost2010Prop30
280
     1
102
RTVSPost2010PropOp30
 70
     1
102
RTVSPost2010Prop31
280
     0
102
RTVSPost2010PropOp31
 70
     1
102
RTVSPost2010Prop32
280
     0
102
RTVSPost2010PropOp32
 70
     1
102
RTVSPost2010Prop33
280
     0
102
RTVSPost2010PropOp33
 70
     1
102
RTVSPost2010Prop34
280
     0
102
RTVSPost2010PropOp34
 70
     1
102
RTVSPost2010Prop35
280
     0
102
RTVSPost2010PropOp35
 70
     1
102
RTVSPost2010Prop36
280
     0
102
RTVSPost2010PropOp36
 70
     1
102
RTVSPost2010Prop37
 90
       50
102
RTVSPost2010PropOp37
 70
     1
102
RTVSPost2010Prop38
140
0.0
102
RTVSPost2010PropOp38
 70
     1
102
RTVSPost2010Prop39
140
1.0
102
RTVSPost2010PropOp39
 70
     1
102
RTVSPost2010Prop40
 90
        0
102
RTVSPost2010PropOp40
 70
     1
102
RTVSPost2010Prop41ColorIndex
 90
       18
102
RTVSPost2010Prop41ColorRGB
 90
        0
102
RTVSPost2010PropOp41
 70
     1
102
RTVSPost2010Prop42
 90
       50
102
RTVSPost2010PropOp42
 70
     1
102
RTVSPost2010Prop43
 90
        3
102
RTVSPost2010PropOp43
 70
     1
102
RTVSPost2010Prop44ColorIndex
 90
        5
102
RTVSPost2010Prop44ColorRGB
 90
      255
102
RTVSPost2010PropOp44
 70
     1
102
RTVSPost2010Prop45
280
     0
102
RTVSPost2010PropOp45
 70
     1
102
RTVSPost2010Prop46
 90
       50
102
RTVSPost2010PropOp46
 70
     1
102
RTVSPost2010Prop47
 90
       50
102
RTVSPost2010PropOp47
 70
     1
102
RTVSPost2010Prop48
 90
       50
102
RTVSPost2010PropOp48
 70
     1
102
RTVSPost2010Prop49
280
     0
102
RTVSPost2010PropOp49
 70
     1
102
RTVSPost2010Prop50
 90
       50
102
RTVSPost2010PropOp50
 70
     1
102
RTVSPost2010Prop51ColorIndex
 90
      256
102
RTVSPost2010Prop51ColorRGB
 90
-16777216
102
RTVSPost2010PropOp51
 70
     0
102
RTVSPost2010Prop52
140
1.0
102
RTVSPost2010PropOp52
 70
     0
102
RTVSPost2010Prop53
 90
        2
102
RTVSPost2010PropOp53
 70
     1
102
RTVSPost2010Prop54
  1
strokes_ogs.tif
102
RTVSPost2010PropOp54
 70
     1
102
RTVSPost2010Prop55
280
     0
102
RTVSPost2010PropOp55
 70
     1
102
RTVSPost2010Prop56
140
1.0
102
RTVSPost2010PropOp56
 70
     1
102
RTVSPost2010Prop57
140
1.0
102
RTVSPost2010PropOp57
 70
     1
  0
XRECORD
  5
377
102
{ACAD_REACTORS
330
376
102
}
330
376
100
AcDbXrecord
280
     1
102
RTVSPropertyOp0
 70
     1
102
RTVSPropertyOp1
 70
     1
102
RTVSPropertyOp2
 70
     1
102
RTVSPropertyOp3
 70
     1
102
RTVSPropertyOp4
 70
     1
102
RTVSPropertyOp5
 70
     1
102
RTVSPropertyOp6
 70
     1
102
RTVSPropertyOp7
 70
     1
102
RTVSPropertyOp8
 70
     1
102
RTVSPropertyOp9
 70
     1
102
RTVSPropertyOp10
 70
     1
102
RTVSPropertyOp11
 70
     1
102
RTVSPropertyOp12
 70
     1
102
RTVSPropertyOp13
 70
     1
102
RTVSPropertyOp14
 70
     1
102
RTVSPropertyOp15
 70
     1
102
RTVSPropertyOp16
 70
     1
102
RTVSPropertyOp17
 70
     1
102
RTVSPropertyOp18
 70
     1
102
RTVSPropertyOp19
 70
     1
102
RTVSPropertyOp20
 70
     1
102
RTVSPropertyOp21
 70
     1
102
RTVSPropertyOp22
 70
     1
102
RTVSPropertyOp23
 70
     1
102
RTVSPropertyOp24
 70
     1
102
RTVSPropertyOp25
 70
     1
102
RTVSPropertyOp26
 70
     1
102
RTVSPropertyOp27
 70
     1
102
RTVSPropertyOp28
 70
     1
102
RTVSPropertyOp29
 70
     1
102
RTVSPropertyOp30
 70
     1
102
RTVSPropertyOp31
 70
     1
102
RTVSPropertyOp32
 70
     1
102
RTVSPropertyOp33
 70
     1
102
RTVSPropertyOp34
 70
     1
102
RTVSPropertyOp35
 70
     1
102
RTVSPropertyOp36
 70
     1
102
RTVSPropertyOp37
 70
     1
102
RTVSPropertyOp38
 70
     1
102
RTVSPropertyOp39
 70
     1
102
RTVSPropertyOp40
 70
     1
102
RTVSPropertyOp41
 70
     1
102
RTVSPropertyOp42
 70
     1
102
RTVSPropertyOp43
 70
     1
102
RTVSPropertyOp44
 70
     1
102
RTVSPropertyOp45
 70
     1
102
RTVSPropertyOp46
 70
     1
102
RTVSPropertyOp47
 70
     1
102
RTVSPropertyOp48
 70
     1
102
RTVSPropertyOp49
 70
     1
102
RTVSPropertyOp50
 70
     1
102
RTVSPropertyOp51
 70
     0
102
RTVSPropertyOp52
 70
     0
102
RTVSPropertyOp53
 70
     1
102
RTVSPropertyOp54
 70
     1
102
RTVSPropertyOp55
 70
     1
102
RTVSPropertyOp56
 70
     1
102
RTVSPropertyOp57
 70
     1
102
RTVSPost2010Prop28
280
     0
102
RTVSPost2010PropOp28
 70
     1
102
RTVSPost2010Prop29
280
     1
102
RTVSPost2010PropOp29
 70
     1
102
RTVSPost2010Prop30
280
     1
102
RTVSPost2010PropOp30
 70
     1
102
RTVSPost2010Prop31
280
     0
102
RTVSPost2010PropOp31
 70
     1
102
RTVSPost2010Prop32
280
     0
102
RTVSPost2010PropOp32
 70
     1
102
RTVSPost2010Prop33
280
     0
102
RTVSPost2010PropOp33
 70
     1
102
RTVSPost2010Prop34
280
     0
102
RTVSPost2010PropOp34
 70
     1
102
RTVSPost2010Prop35
280
     0
102
RTVSPost2010PropOp35
 70
     1
102
RTVSPost2010Prop36
280
     0
102
RTVSPost2010PropOp36
 70
     1
102
RTVSPost2010Prop37
 90
       50
102
RTVSPost2010PropOp37
 70
     1
102
RTVSPost2010Prop38
140
0.0
102
RTVSPost2010PropOp38
 70
     1
102
RTVSPost2010Prop39
140
1.0
102
RTVSPost2010PropOp39
 70
     1
102
RTVSPost2010Prop40
 90
        0
102
RTVSPost2010PropOp40
 70
     1
102
RTVSPost2010Prop41ColorIndex
 90
       18
102
RTVSPost2010Prop41ColorRGB
 90
        0
102
RTVSPost2010PropOp41
 70
     1
102
RTVSPost2010Prop42
 90
       50
102
RTVSPost2010PropOp42
 70
     1
102
RTVSPost2010Prop43
 90
        3
102
RTVSPost2010PropOp43
 70
     1
102
RTVSPost2010Prop44ColorIndex
 90
        5
102
RTVSPost2010Prop44ColorRGB
 90
      255
102
RTVSPost2010PropOp44
 70
     1
102
RTVSPost2010Prop45
280
     0
102
RTVSPost2010PropOp45
 70
     1
102
RTVSPost2010Prop46
 90
       50
102
RTVSPost2010PropOp46
 70
     1
102
RTVSPost2010Prop47
 90
       50
102
RTVSPost2010PropOp47
 70
     1
102
RTVSPost2010Prop48
 90
       50
102
RTVSPost2010PropOp48
 70
     1
102
RTVSPost2010Prop49
280
     0
102
RTVSPost2010PropOp49
 70
     1
102
RTVSPost2010Prop50
 90
       50
102
RTVSPost2010PropOp50
 70
     1
102
RTVSPost2010Prop51ColorIndex
 90
      256
102
RTVSPost2010Prop51ColorRGB
 90
-16777216
102
RTVSPost2010PropOp51
 70
     0
102
RTVSPost2010Prop52
140
1.0
102
RTVSPost2010PropOp52
 70
     0
102
RTVSPost2010Prop53
 90
        2
102
RTVSPost2010PropOp53
 70
     1
102
RTVSPost2010Prop54
  1
strokes_ogs.tif
102
RTVSPost2010PropOp54
 70
     1
102
RTVSPost2010Prop55
280
     0
102
RTVSPost2010PropOp55
 70
     1
102
RTVSPost2010Prop56
140
1.0
102
RTVSPost2010PropOp56
 70
     1
102
RTVSPost2010Prop57
140
1.0
102
RTVSPost2010PropOp57
 70
     1
  0
XRECORD
  5
371
102
{ACAD_REACTORS
330
370
102
}
330
370
100
AcDbXrecord
280
     1
102
RTVSPropertyOp0
 70
     1
102
RTVSPropertyOp1
 70
     1
102
RTVSPropertyOp2
 70
     1
102
RTVSPropertyOp3
 70
     1
102
RTVSPropertyOp4
 70
     1
102
RTVSPropertyOp5
 70
     1
102
RTVSPropertyOp6
 70
     1
102
RTVSPropertyOp7
 70
     1
102
RTVSPropertyOp8
 70
     1
102
RTVSPropertyOp9
 70
     1
102
RTVSPropertyOp10
 70
     1
102
RTVSPropertyOp11
 70
     1
102
RTVSPropertyOp12
 70
     1
102
RTVSPropertyOp13
 70
     1
102
RTVSPropertyOp14
 70
     1
102
RTVSPropertyOp15
 70
     1
102
RTVSPropertyOp16
 70
     1
102
RTVSPropertyOp17
 70
     1
102
RTVSPropertyOp18
 70
     1
102
RTVSPropertyOp19
 70
     1
102
RTVSPropertyOp20
 70
     1
102
RTVSPropertyOp21
 70
     1
102
RTVSPropertyOp22
 70
     1
102
RTVSPropertyOp23
 70
     1
102
RTVSPropertyOp24
 70
     1
102
RTVSPropertyOp25
 70
     1
102
RTVSPropertyOp26
 70
     1
102
RTVSPropertyOp27
 70
     1
102
RTVSPropertyOp28
 70
     1
102
RTVSPropertyOp29
 70
     1
102
RTVSPropertyOp30
 70
     1
102
RTVSPropertyOp31
 70
     1
102
RTVSPropertyOp32
 70
     1
102
RTVSPropertyOp33
 70
     1
102
RTVSPropertyOp34
 70
     1
102
RTVSPropertyOp35
 70
     1
102
RTVSPropertyOp36
 70
     1
102
RTVSPropertyOp37
 70
     1
102
RTVSPropertyOp38
 70
     1
102
RTVSPropertyOp39
 70
     1
102
RTVSPropertyOp40
 70
     1
102
RTVSPropertyOp41
 70
     1
102
RTVSPropertyOp42
 70
     1
102
RTVSPropertyOp43
 70
     1
102
RTVSPropertyOp44
 70
     1
102
RTVSPropertyOp45
 70
     1
102
RTVSPropertyOp46
 70
     1
102
RTVSPropertyOp47
 70
     1
102
RTVSPropertyOp48
 70
     1
102
RTVSPropertyOp49
 70
     1
102
RTVSPropertyOp50
 70
     1
102
RTVSPropertyOp51
 70
     0
102
RTVSPropertyOp52
 70
     0
102
RTVSPropertyOp53
 70
     1
102
RTVSPropertyOp54
 70
     1
102
RTVSPropertyOp55
 70
     1
102
RTVSPropertyOp56
 70
     1
102
RTVSPropertyOp57
 70
     1
102
RTVSPost2010Prop28
280
     0
102
RTVSPost2010PropOp28
 70
     1
102
RTVSPost2010Prop29
280
     1
102
RTVSPost2010PropOp29
 70
     1
102
RTVSPost2010Prop30
280
     1
102
RTVSPost2010PropOp30
 70
     1
102
RTVSPost2010Prop31
280
     0
102
RTVSPost2010PropOp31
 70
     1
102
RTVSPost2010Prop32
280
     0
102
RTVSPost2010PropOp32
 70
     1
102
RTVSPost2010Prop33
280
     0
102
RTVSPost2010PropOp33
 70
     1
102
RTVSPost2010Prop34
280
     0
102
RTVSPost2010PropOp34
 70
     1
102
RTVSPost2010Prop35
280
     0
102
RTVSPost2010PropOp35
 70
     1
102
RTVSPost2010Prop36
280
     0
102
RTVSPost2010PropOp36
 70
     1
102
RTVSPost2010Prop37
 90
       50
102
RTVSPost2010PropOp37
 70
     1
102
RTVSPost2010Prop38
140
0.0
102
RTVSPost2010PropOp38
 70
     1
102
RTVSPost2010Prop39
140
1.0
102
RTVSPost2010PropOp39
 70
     1
102
RTVSPost2010Prop40
 90
        0
102
RTVSPost2010PropOp40
 70
     1
102
RTVSPost2010Prop41ColorIndex
 90
       18
102
RTVSPost2010Prop41ColorRGB
 90
        0
102
RTVSPost2010PropOp41
 70
     1
102
RTVSPost2010Prop42
 90
       50
102
RTVSPost2010PropOp42
 70
     1
102
RTVSPost2010Prop43
 90
        3
102
RTVSPost2010PropOp43
 70
     1
102
RTVSPost2010Prop44ColorIndex
 90
        5
102
RTVSPost2010Prop44ColorRGB
 90
      255
102
RTVSPost2010PropOp44
 70
     1
102
RTVSPost2010Prop45
280
     0
102
RTVSPost2010PropOp45
 70
     1
102
RTVSPost2010Prop46
 90
       50
102
RTVSPost2010PropOp46
 70
     1
102
RTVSPost2010Prop47
 90
       50
102
RTVSPost2010PropOp47
 70
     1
102
RTVSPost2010Prop48
 90
       50
102
RTVSPost2010PropOp48
 70
     1
102
RTVSPost2010Prop49
280
     0
102
RTVSPost2010PropOp49
 70
     1
102
RTVSPost2010Prop50
 90
       50
102
RTVSPost2010PropOp50
 70
     1
102
RTVSPost2010Prop51ColorIndex
 90
      256
102
RTVSPost2010Prop51ColorRGB
 90
-16777216
102
RTVSPost2010PropOp51
 70
     0
102
RTVSPost2010Prop52
140
1.0
102
RTVSPost2010PropOp52
 70
     0
102
RTVSPost2010Prop53
 90
        2
102
RTVSPost2010PropOp53
 70
     1
102
RTVSPost2010Prop54
  1
strokes_ogs.tif
102
RTVSPost2010PropOp54
 70
     1
102
RTVSPost2010Prop55
280
     0
102
RTVSPost2010PropOp55
 70
     1
102
RTVSPost2010Prop56
140
1.0
102
RTVSPost2010PropOp56
 70
     1
102
RTVSPost2010Prop57
140
1.0
102
RTVSPost2010PropOp57
 70
     1
  0
XRECORD
  5
373
102
{ACAD_REACTORS
330
372
102
}
330
372
100
AcDbXrecord
280
     1
102
RTVSPropertyOp0
 70
     1
102
RTVSPropertyOp1
 70
     1
102
RTVSPropertyOp2
 70
     1
102
RTVSPropertyOp3
 70
     1
102
RTVSPropertyOp4
 70
     1
102
RTVSPropertyOp5
 70
     1
102
RTVSPropertyOp6
 70
     1
102
RTVSPropertyOp7
 70
     1
102
RTVSPropertyOp8
 70
     1
102
RTVSPropertyOp9
 70
     1
102
RTVSPropertyOp10
 70
     1
102
RTVSPropertyOp11
 70
     1
102
RTVSPropertyOp12
 70
     1
102
RTVSPropertyOp13
 70
     1
102
RTVSPropertyOp14
 70
     1
102
RTVSPropertyOp15
 70
     1
102
RTVSPropertyOp16
 70
     1
102
RTVSPropertyOp17
 70
     1
102
RTVSPropertyOp18
 70
     1
102
RTVSPropertyOp19
 70
     1
102
RTVSPropertyOp20
 70
     1
102
RTVSPropertyOp21
 70
     1
102
RTVSPropertyOp22
 70
     1
102
RTVSPropertyOp23
 70
     1
102
RTVSPropertyOp24
 70
     1
102
RTVSPropertyOp25
 70
     1
102
RTVSPropertyOp26
 70
     1
102
RTVSPropertyOp27
 70
     1
102
RTVSPropertyOp28
 70
     1
102
RTVSPropertyOp29
 70
     1
102
RTVSPropertyOp30
 70
     1
102
RTVSPropertyOp31
 70
     1
102
RTVSPropertyOp32
 70
     1
102
RTVSPropertyOp33
 70
     1
102
RTVSPropertyOp34
 70
     1
102
RTVSPropertyOp35
 70
     1
102
RTVSPropertyOp36
 70
     1
102
RTVSPropertyOp37
 70
     1
102
RTVSPropertyOp38
 70
     1
102
RTVSPropertyOp39
 70
     1
102
RTVSPropertyOp40
 70
     1
102
RTVSPropertyOp41
 70
     1
102
RTVSPropertyOp42
 70
     1
102
RTVSPropertyOp43
 70
     1
102
RTVSPropertyOp44
 70
     1
102
RTVSPropertyOp45
 70
     1
102
RTVSPropertyOp46
 70
     1
102
RTVSPropertyOp47
 70
     1
102
RTVSPropertyOp48
 70
     1
102
RTVSPropertyOp49
 70
     1
102
RTVSPropertyOp50
 70
     1
102
RTVSPropertyOp51
 70
     0
102
RTVSPropertyOp52
 70
     0
102
RTVSPropertyOp53
 70
     1
102
RTVSPropertyOp54
 70
     1
102
RTVSPropertyOp55
 70
     1
102
RTVSPropertyOp56
 70
     1
102
RTVSPropertyOp57
 70
     1
102
RTVSPost2010Prop28
280
     0
102
RTVSPost2010PropOp28
 70
     1
102
RTVSPost2010Prop29
280
     1
102
RTVSPost2010PropOp29
 70
     1
102
RTVSPost2010Prop30
280
     1
102
RTVSPost2010PropOp30
 70
     1
102
RTVSPost2010Prop31
280
     0
102
RTVSPost2010PropOp31
 70
     1
102
RTVSPost2010Prop32
280
     0
102
RTVSPost2010PropOp32
 70
     1
102
RTVSPost2010Prop33
280
     0
102
RTVSPost2010PropOp33
 70
     1
102
RTVSPost2010Prop34
280
     0
102
RTVSPost2010PropOp34
 70
     1
102
RTVSPost2010Prop35
280
     0
102
RTVSPost2010PropOp35
 70
     1
102
RTVSPost2010Prop36
280
     0
102
RTVSPost2010PropOp36
 70
     1
102
RTVSPost2010Prop37
 90
       50
102
RTVSPost2010PropOp37
 70
     1
102
RTVSPost2010Prop38
140
0.0
102
RTVSPost2010PropOp38
 70
     1
102
RTVSPost2010Prop39
140
1.0
102
RTVSPost2010PropOp39
 70
     1
102
RTVSPost2010Prop40
 90
        0
102
RTVSPost2010PropOp40
 70
     1
102
RTVSPost2010Prop41ColorIndex
 90
       18
102
RTVSPost2010Prop41ColorRGB
 90
        0
102
RTVSPost2010PropOp41
 70
     1
102
RTVSPost2010Prop42
 90
       50
102
RTVSPost2010PropOp42
 70
     1
102
RTVSPost2010Prop43
 90
        3
102
RTVSPost2010PropOp43
 70
     1
102
RTVSPost2010Prop44ColorIndex
 90
        5
102
RTVSPost2010Prop44ColorRGB
 90
      255
102
RTVSPost2010PropOp44
 70
     1
102
RTVSPost2010Prop45
280
     0
102
RTVSPost2010PropOp45
 70
     1
102
RTVSPost2010Prop46
 90
       50
102
RTVSPost2010PropOp46
 70
     1
102
RTVSPost2010Prop47
 90
       50
102
RTVSPost2010PropOp47
 70
     1
102
RTVSPost2010Prop48
 90
       50
102
RTVSPost2010PropOp48
 70
     1
102
RTVSPost2010Prop49
280
     0
102
RTVSPost2010PropOp49
 70
     1
102
RTVSPost2010Prop50
 90
       50
102
RTVSPost2010PropOp50
 70
     1
102
RTVSPost2010Prop51ColorIndex
 90
      256
102
RTVSPost2010Prop51ColorRGB
 90
-16777216
102
RTVSPost2010PropOp51
 70
     0
102
RTVSPost2010Prop52
140
1.0
102
RTVSPost2010PropOp52
 70
     0
102
RTVSPost2010Prop53
 90
        2
102
RTVSPost2010PropOp53
 70
     1
102
RTVSPost2010Prop54
  1
strokes_ogs.tif
102
RTVSPost2010PropOp54
 70
     1
102
RTVSPost2010Prop55
280
     0
102
RTVSPost2010PropOp55
 70
     1
102
RTVSPost2010Prop56
140
1.0
102
RTVSPost2010PropOp56
 70
     1
102
RTVSPost2010Prop57
140
1.0
102
RTVSPost2010PropOp57
 70
     1
  0
XRECORD
  5
363
102
{ACAD_REACTORS
330
362
102
}
330
362
100
AcDbXrecord
280
     1
102
RTVSPropertyOp0
 70
     1
102
RTVSPropertyOp1
 70
     1
102
RTVSPropertyOp2
 70
     1
102
RTVSPropertyOp3
 70
     1
102
RTVSPropertyOp4
 70
     1
102
RTVSPropertyOp5
 70
     1
102
RTVSPropertyOp6
 70
     1
102
RTVSPropertyOp7
 70
     1
102
RTVSPropertyOp8
 70
     1
102
RTVSPropertyOp9
 70
     1
102
RTVSPropertyOp10
 70
     1
102
RTVSPropertyOp11
 70
     1
102
RTVSPropertyOp12
 70
     1
102
RTVSPropertyOp13
 70
     1
102
RTVSPropertyOp14
 70
     1
102
RTVSPropertyOp15
 70
     1
102
RTVSPropertyOp16
 70
     1
102
RTVSPropertyOp17
 70
     1
102
RTVSPropertyOp18
 70
     1
102
RTVSPropertyOp19
 70
     1
102
RTVSPropertyOp20
 70
     1
102
RTVSPropertyOp21
 70
     1
102
RTVSPropertyOp22
 70
     1
102
RTVSPropertyOp23
 70
     1
102
RTVSPropertyOp24
 70
     1
102
RTVSPropertyOp25
 70
     1
102
RTVSPropertyOp26
 70
     1
102
RTVSPropertyOp27
 70
     1
102
RTVSPropertyOp28
 70
     1
102
RTVSPropertyOp29
 70
     1
102
RTVSPropertyOp30
 70
     1
102
RTVSPropertyOp31
 70
     1
102
RTVSPropertyOp32
 70
     1
102
RTVSPropertyOp33
 70
     1
102
RTVSPropertyOp34
 70
     1
102
RTVSPropertyOp35
 70
     1
102
RTVSPropertyOp36
 70
     1
102
RTVSPropertyOp37
 70
     1
102
RTVSPropertyOp38
 70
     1
102
RTVSPropertyOp39
 70
     1
102
RTVSPropertyOp40
 70
     1
102
RTVSPropertyOp41
 70
     1
102
RTVSPropertyOp42
 70
     1
102
RTVSPropertyOp43
 70
     1
102
RTVSPropertyOp44
 70
     1
102
RTVSPropertyOp45
 70
     1
102
RTVSPropertyOp46
 70
     1
102
RTVSPropertyOp47
 70
     1
102
RTVSPropertyOp48
 70
     1
102
RTVSPropertyOp49
 70
     1
102
RTVSPropertyOp50
 70
     1
102
RTVSPropertyOp51
 70
     0
102
RTVSPropertyOp52
 70
     0
102
RTVSPropertyOp53
 70
     1
102
RTVSPropertyOp54
 70
     1
102
RTVSPropertyOp55
 70
     1
102
RTVSPropertyOp56
 70
     1
102
RTVSPropertyOp57
 70
     1
102
RTVSPost2010Prop28
280
     0
102
RTVSPost2010PropOp28
 70
     1
102
RTVSPost2010Prop29
280
     1
102
RTVSPost2010PropOp29
 70
     1
102
RTVSPost2010Prop30
280
     1
102
RTVSPost2010PropOp30
 70
     1
102
RTVSPost2010Prop31
280
     0
102
RTVSPost2010PropOp31
 70
     1
102
RTVSPost2010Prop32
280
     0
102
RTVSPost2010PropOp32
 70
     1
102
RTVSPost2010Prop33
280
     0
102
RTVSPost2010PropOp33
 70
     1
102
RTVSPost2010Prop34
280
     0
102
RTVSPost2010PropOp34
 70
     1
102
RTVSPost2010Prop35
280
     0
102
RTVSPost2010PropOp35
 70
     1
102
RTVSPost2010Prop36
280
     0
102
RTVSPost2010PropOp36
 70
     1
102
RTVSPost2010Prop37
 90
       50
102
RTVSPost2010PropOp37
 70
     1
102
RTVSPost2010Prop38
140
0.0
102
RTVSPost2010PropOp38
 70
     1
102
RTVSPost2010Prop39
140
1.0
102
RTVSPost2010PropOp39
 70
     1
102
RTVSPost2010Prop40
 90
        0
102
RTVSPost2010PropOp40
 70
     1
102
RTVSPost2010Prop41ColorIndex
 90
       18
102
RTVSPost2010Prop41ColorRGB
 90
        0
102
RTVSPost2010PropOp41
 70
     1
102
RTVSPost2010Prop42
 90
       50
102
RTVSPost2010PropOp42
 70
     1
102
RTVSPost2010Prop43
 90
        3
102
RTVSPost2010PropOp43
 70
     1
102
RTVSPost2010Prop44ColorIndex
 90
        5
102
RTVSPost2010Prop44ColorRGB
 90
      255
102
RTVSPost2010PropOp44
 70
     1
102
RTVSPost2010Prop45
280
     0
102
RTVSPost2010PropOp45
 70
     1
102
RTVSPost2010Prop46
 90
       50
102
RTVSPost2010PropOp46
 70
     1
102
RTVSPost2010Prop47
 90
       50
102
RTVSPost2010PropOp47
 70
     1
102
RTVSPost2010Prop48
 90
       50
102
RTVSPost2010PropOp48
 70
     1
102
RTVSPost2010Prop49
280
     0
102
RTVSPost2010PropOp49
 70
     1
102
RTVSPost2010Prop50
 90
       50
102
RTVSPost2010PropOp50
 70
     1
102
RTVSPost2010Prop51ColorIndex
 90
      256
102
RTVSPost2010Prop51ColorRGB
 90
-16777216
102
RTVSPost2010PropOp51
 70
     0
102
RTVSPost2010Prop52
140
1.0
102
RTVSPost2010PropOp52
 70
     0
102
RTVSPost2010Prop53
 90
        2
102
RTVSPost2010PropOp53
 70
     1
102
RTVSPost2010Prop54
  1
strokes_ogs.tif
102
RTVSPost2010PropOp54
 70
     1
102
RTVSPost2010Prop55
280
     0
102
RTVSPost2010PropOp55
 70
     1
102
RTVSPost2010Prop56
140
1.0
102
RTVSPost2010PropOp56
 70
     1
102
RTVSPost2010Prop57
140
1.0
102
RTVSPost2010PropOp57
 70
     1
  0
XRECORD
  5
355
102
{ACAD_REACTORS
330
354
102
}
330
354
100
AcDbXrecord
280
     1
102
RTVSPropertyOp0
 70
     1
102
RTVSPropertyOp1
 70
     1
102
RTVSPropertyOp2
 70
     1
102
RTVSPropertyOp3
 70
     1
102
RTVSPropertyOp4
 70
     1
102
RTVSPropertyOp5
 70
     1
102
RTVSPropertyOp6
 70
     1
102
RTVSPropertyOp7
 70
     1
102
RTVSPropertyOp8
 70
     1
102
RTVSPropertyOp9
 70
     1
102
RTVSPropertyOp10
 70
     1
102
RTVSPropertyOp11
 70
     1
102
RTVSPropertyOp12
 70
     1
102
RTVSPropertyOp13
 70
     1
102
RTVSPropertyOp14
 70
     1
102
RTVSPropertyOp15
 70
     1
102
RTVSPropertyOp16
 70
     1
102
RTVSPropertyOp17
 70
     1
102
RTVSPropertyOp18
 70
     1
102
RTVSPropertyOp19
 70
     1
102
RTVSPropertyOp20
 70
     1
102
RTVSPropertyOp21
 70
     1
102
RTVSPropertyOp22
 70
     1
102
RTVSPropertyOp23
 70
     1
102
RTVSPropertyOp24
 70
     1
102
RTVSPropertyOp25
 70
     1
102
RTVSPropertyOp26
 70
     1
102
RTVSPropertyOp27
 70
     1
102
RTVSPropertyOp28
 70
     1
102
RTVSPropertyOp29
 70
     1
102
RTVSPropertyOp30
 70
     1
102
RTVSPropertyOp31
 70
     1
102
RTVSPropertyOp32
 70
     1
102
RTVSPropertyOp33
 70
     1
102
RTVSPropertyOp34
 70
     1
102
RTVSPropertyOp35
 70
     1
102
RTVSPropertyOp36
 70
     1
102
RTVSPropertyOp37
 70
     1
102
RTVSPropertyOp38
 70
     1
102
RTVSPropertyOp39
 70
     1
102
RTVSPropertyOp40
 70
     1
102
RTVSPropertyOp41
 70
     1
102
RTVSPropertyOp42
 70
     1
102
RTVSPropertyOp43
 70
     1
102
RTVSPropertyOp44
 70
     1
102
RTVSPropertyOp45
 70
     1
102
RTVSPropertyOp46
 70
     1
102
RTVSPropertyOp47
 70
     1
102
RTVSPropertyOp48
 70
     1
102
RTVSPropertyOp49
 70
     1
102
RTVSPropertyOp50
 70
     1
102
RTVSPropertyOp51
 70
     0
102
RTVSPropertyOp52
 70
     0
102
RTVSPropertyOp53
 70
     1
102
RTVSPropertyOp54
 70
     1
102
RTVSPropertyOp55
 70
     1
102
RTVSPropertyOp56
 70
     1
102
RTVSPropertyOp57
 70
     1
102
RTVSPost2010Prop28
280
     0
102
RTVSPost2010PropOp28
 70
     1
102
RTVSPost2010Prop29
280
     1
102
RTVSPost2010PropOp29
 70
     1
102
RTVSPost2010Prop30
280
     1
102
RTVSPost2010PropOp30
 70
     1
102
RTVSPost2010Prop31
280
     0
102
RTVSPost2010PropOp31
 70
     1
102
RTVSPost2010Prop32
280
     0
102
RTVSPost2010PropOp32
 70
     1
102
RTVSPost2010Prop33
280
     0
102
RTVSPost2010PropOp33
 70
     1
102
RTVSPost2010Prop34
280
     0
102
RTVSPost2010PropOp34
 70
     1
102
RTVSPost2010Prop35
280
     0
102
RTVSPost2010PropOp35
 70
     1
102
RTVSPost2010Prop36
280
     0
102
RTVSPost2010PropOp36
 70
     1
102
RTVSPost2010Prop37
 90
       50
102
RTVSPost2010PropOp37
 70
     1
102
RTVSPost2010Prop38
140
0.0
102
RTVSPost2010PropOp38
 70
     1
102
RTVSPost2010Prop39
140
1.0
102
RTVSPost2010PropOp39
 70
     1
102
RTVSPost2010Prop40
 90
        0
102
RTVSPost2010PropOp40
 70
     1
102
RTVSPost2010Prop41ColorIndex
 90
       18
102
RTVSPost2010Prop41ColorRGB
 90
        0
102
RTVSPost2010PropOp41
 70
     1
102
RTVSPost2010Prop42
 90
       50
102
RTVSPost2010PropOp42
 70
     1
102
RTVSPost2010Prop43
 90
        3
102
RTVSPost2010PropOp43
 70
     1
102
RTVSPost2010Prop44ColorIndex
 90
        5
102
RTVSPost2010Prop44ColorRGB
 90
      255
102
RTVSPost2010PropOp44
 70
     1
102
RTVSPost2010Prop45
280
     0
102
RTVSPost2010PropOp45
 70
     1
102
RTVSPost2010Prop46
 90
       50
102
RTVSPost2010PropOp46
 70
     1
102
RTVSPost2010Prop47
 90
       50
102
RTVSPost2010PropOp47
 70
     1
102
RTVSPost2010Prop48
 90
       50
102
RTVSPost2010PropOp48
 70
     1
102
RTVSPost2010Prop49
280
     0
102
RTVSPost2010PropOp49
 70
     1
102
RTVSPost2010Prop50
 90
       50
102
RTVSPost2010PropOp50
 70
     1
102
RTVSPost2010Prop51ColorIndex
 90
      256
102
RTVSPost2010Prop51ColorRGB
 90
-16777216
102
RTVSPost2010PropOp51
 70
     0
102
RTVSPost2010Prop52
140
1.0
102
RTVSPost2010PropOp52
 70
     0
102
RTVSPost2010Prop53
 90
        2
102
RTVSPost2010PropOp53
 70
     1
102
RTVSPost2010Prop54
  1
strokes_ogs.tif
102
RTVSPost2010PropOp54
 70
     1
102
RTVSPost2010Prop55
280
     0
102
RTVSPost2010PropOp55
 70
     1
102
RTVSPost2010Prop56
140
1.0
102
RTVSPost2010PropOp56
 70
     1
102
RTVSPost2010Prop57
140
1.0
102
RTVSPost2010PropOp57
 70
     1
  0
XRECORD
  5
375
102
{ACAD_REACTORS
330
374
102
}
330
374
100
AcDbXrecord
280
     1
102
RTVSPropertyOp0
 70
     1
102
RTVSPropertyOp1
 70
     1
102
RTVSPropertyOp2
 70
     1
102
RTVSPropertyOp3
 70
     1
102
RTVSPropertyOp4
 70
     1
102
RTVSPropertyOp5
 70
     1
102
RTVSPropertyOp6
 70
     1
102
RTVSPropertyOp7
 70
     1
102
RTVSPropertyOp8
 70
     1
102
RTVSPropertyOp9
 70
     1
102
RTVSPropertyOp10
 70
     1
102
RTVSPropertyOp11
 70
     1
102
RTVSPropertyOp12
 70
     1
102
RTVSPropertyOp13
 70
     1
102
RTVSPropertyOp14
 70
     1
102
RTVSPropertyOp15
 70
     1
102
RTVSPropertyOp16
 70
     1
102
RTVSPropertyOp17
 70
     1
102
RTVSPropertyOp18
 70
     1
102
RTVSPropertyOp19
 70
     1
102
RTVSPropertyOp20
 70
     1
102
RTVSPropertyOp21
 70
     1
102
RTVSPropertyOp22
 70
     1
102
RTVSPropertyOp23
 70
     1
102
RTVSPropertyOp24
 70
     1
102
RTVSPropertyOp25
 70
     1
102
RTVSPropertyOp26
 70
     1
102
RTVSPropertyOp27
 70
     1
102
RTVSPropertyOp28
 70
     1
102
RTVSPropertyOp29
 70
     1
102
RTVSPropertyOp30
 70
     1
102
RTVSPropertyOp31
 70
     1
102
RTVSPropertyOp32
 70
     1
102
RTVSPropertyOp33
 70
     1
102
RTVSPropertyOp34
 70
     1
102
RTVSPropertyOp35
 70
     1
102
RTVSPropertyOp36
 70
     1
102
RTVSPropertyOp37
 70
     1
102
RTVSPropertyOp38
 70
     1
102
RTVSPropertyOp39
 70
     1
102
RTVSPropertyOp40
 70
     1
102
RTVSPropertyOp41
 70
     1
102
RTVSPropertyOp42
 70
     1
102
RTVSPropertyOp43
 70
     1
102
RTVSPropertyOp44
 70
     1
102
RTVSPropertyOp45
 70
     1
102
RTVSPropertyOp46
 70
     1
102
RTVSPropertyOp47
 70
     1
102
RTVSPropertyOp48
 70
     1
102
RTVSPropertyOp49
 70
     1
102
RTVSPropertyOp50
 70
     1
102
RTVSPropertyOp51
 70
     0
102
RTVSPropertyOp52
 70
     0
102
RTVSPropertyOp53
 70
     1
102
RTVSPropertyOp54
 70
     1
102
RTVSPropertyOp55
 70
     1
102
RTVSPropertyOp56
 70
     1
102
RTVSPropertyOp57
 70
     1
102
RTVSPost2010Prop28
280
     0
102
RTVSPost2010PropOp28
 70
     1
102
RTVSPost2010Prop29
280
     1
102
RTVSPost2010PropOp29
 70
     1
102
RTVSPost2010Prop30
280
     1
102
RTVSPost2010PropOp30
 70
     1
102
RTVSPost2010Prop31
280
     0
102
RTVSPost2010PropOp31
 70
     1
102
RTVSPost2010Prop32
280
     0
102
RTVSPost2010PropOp32
 70
     1
102
RTVSPost2010Prop33
280
     0
102
RTVSPost2010PropOp33
 70
     1
102
RTVSPost2010Prop34
280
     0
102
RTVSPost2010PropOp34
 70
     1
102
RTVSPost2010Prop35
280
     0
102
RTVSPost2010PropOp35
 70
     1
102
RTVSPost2010Prop36
280
     0
102
RTVSPost2010PropOp36
 70
     1
102
RTVSPost2010Prop37
 90
       50
102
RTVSPost2010PropOp37
 70
     1
102
RTVSPost2010Prop38
140
0.0
102
RTVSPost2010PropOp38
 70
     1
102
RTVSPost2010Prop39
140
1.0
102
RTVSPost2010PropOp39
 70
     1
102
RTVSPost2010Prop40
 90
        0
102
RTVSPost2010PropOp40
 70
     1
102
RTVSPost2010Prop41ColorIndex
 90
       18
102
RTVSPost2010Prop41ColorRGB
 90
        0
102
RTVSPost2010PropOp41
 70
     1
102
RTVSPost2010Prop42
 90
       50
102
RTVSPost2010PropOp42
 70
     1
102
RTVSPost2010Prop43
 90
        3
102
RTVSPost2010PropOp43
 70
     1
102
RTVSPost2010Prop44ColorIndex
 90
        5
102
RTVSPost2010Prop44ColorRGB
 90
      255
102
RTVSPost2010PropOp44
 70
     1
102
RTVSPost2010Prop45
280
     0
102
RTVSPost2010PropOp45
 70
     1
102
RTVSPost2010Prop46
 90
       50
102
RTVSPost2010PropOp46
 70
     1
102
RTVSPost2010Prop47
 90
       50
102
RTVSPost2010PropOp47
 70
     1
102
RTVSPost2010Prop48
 90
       50
102
RTVSPost2010PropOp48
 70
     1
102
RTVSPost2010Prop49
280
     0
102
RTVSPost2010PropOp49
 70
     1
102
RTVSPost2010Prop50
 90
       50
102
RTVSPost2010PropOp50
 70
     1
102
RTVSPost2010Prop51ColorIndex
 90
      256
102
RTVSPost2010Prop51ColorRGB
 90
-16777216
102
RTVSPost2010PropOp51
 70
     0
102
RTVSPost2010Prop52
140
1.0
102
RTVSPost2010PropOp52
 70
     0
102
RTVSPost2010Prop53
 90
        2
102
RTVSPost2010PropOp53
 70
     1
102
RTVSPost2010Prop54
  1
strokes_ogs.tif
102
RTVSPost2010PropOp54
 70
     1
102
RTVSPost2010Prop55
280
     0
102
RTVSPost2010PropOp55
 70
     1
102
RTVSPost2010Prop56
140
1.0
102
RTVSPost2010PropOp56
 70
     1
102
RTVSPost2010Prop57
140
1.0
102
RTVSPost2010PropOp57
 70
     1
  0
ENDSEC
  0
EOF
