  0
SECTION
  2
HEADER
  9
$ACADVER
  1
AC1015
  9
$ACADMAINTVER
 70
     6
  9
$DWGCODEPAGE
  3
ANSI_932
  9
$INSBASE
 10
0.0
 20
0.0
 30
0.0
  9
$EXTMIN
 10
18.20320223966521
 20
27.33926149519053
 30
0.0
  9
$EXTMAX
 10
385.709624402563
 20
284.75
 30
0.0
  9
$LIMMIN
 10
18.20320223966521
 20
27.33926149519053
  9
$LIMMAX
 10
385.709624402563
 20
284.75
  9
$ORTHOMODE
 70
     0
  9
$REGENMODE
 70
     1
  9
$FILLMODE
 70
     1
  9
$QTEXTMODE
 70
     0
  9
$MIRRTEXT
 70
     1
  9
$LTSCALE
 40
1.0
  9
$ATTMODE
 70
     1
  9
$TEXTSIZE
 40
0.2
  9
$TRACEWID
 40
0.05
  9
$TEXTSTYLE
  7
Standard
  9
$CLAYER
  8
0
  9
$CELTYPE
  6
ByLayer
  9
$CECOLOR
 62
   256
  9
$CELTSCALE
 40
1.0
  9
$DISPSILH
 70
     0
  9
$DIMSCALE
 40
1.0
  9
$DIMASZ
 40
0.18
  9
$DIMEXO
 40
0.0625
  9
$DIMDLI
 40
0.38
  9
$DIMRND
 40
0.0
  9
$DIMDLE
 40
0.0
  9
$DIMEXE
 40
0.18
  9
$DIMTP
 40
0.0
  9
$DIMTM
 40
0.0
  9
$DIMTXT
 40
0.18
  9
$DIMCEN
 40
0.09
  9
$DIMTSZ
 40
0.0
  9
$DIMTOL
 70
     0
  9
$DIMLIM
 70
     0
  9
$DIMTIH
 70
     1
  9
$DIMTOH
 70
     1
  9
$DIMSE1
 70
     0
  9
$DIMSE2
 70
     0
  9
$DIMTAD
 70
     0
  9
$DIMZIN
 70
     0
  9
$DIMBLK
  1

  9
$DIMASO
 70
     1
  9
$DIMSHO
 70
     1
  9
$DIMPOST
  1

  9
$DIMAPOST
  1

  9
$DIMALT
 70
     0
  9
$DIMALTD
 70
     2
  9
$DIMALTF
 40
25.4
  9
$DIMLFAC
 40
1.0
  9
$DIMTOFL
 70
     0
  9
$DIMTVP
 40
0.0
  9
$DIMTIX
 70
     0
  9
$DIMSOXD
 70
     0
  9
$DIMSAH
 70
     0
  9
$DIMBLK1
  1

  9
$DIMBLK2
  1

  9
$DIMSTYLE
  2
Standard
  9
$DIMCLRD
 70
     0
  9
$DIMCLRE
 70
     0
  9
$DIMCLRT
 70
     0
  9
$DIMTFAC
 40
1.0
  9
$DIMGAP
 40
0.09
  9
$DIMJUST
 70
     0
  9
$DIMSD1
 70
     0
  9
$DIMSD2
 70
     0
  9
$DIMTOLJ
 70
     1
  9
$DIMTZIN
 70
     0
  9
$DIMALTZ
 70
     0
  9
$DIMALTTZ
 70
     0
  9
$DIMUPT
 70
     0
  9
$DIMDEC
 70
     4
  9
$DIMTDEC
 70
     4
  9
$DIMALTU
 70
     2
  9
$DIMALTTD
 70
     2
  9
$DIMTXSTY
  7
Standard
  9
$DIMAUNIT
 70
     0
  9
$DIMADEC
 70
     0
  9
$DIMALTRND
 40
0.0
  9
$DIMAZIN
 70
     0
  9
$DIMDSEP
 70
    46
  9
$DIMATFIT
 70
     3
  9
$DIMFRAC
 70
     0
  9
$DIMLDRBLK
  1

  9
$DIMLUNIT
 70
     2
  9
$DIMLWD
 70
    -2
  9
$DIMLWE
 70
    -2
  9
$DIMTMOVE
 70
     0
  9
$LUNITS
 70
     2
  9
$LUPREC
 70
     4
  9
$SKETCHINC
 40
0.1
  9
$FILLETRAD
 40
0.5
  9
$AUNITS
 70
     0
  9
$AUPREC
 70
     0
  9
$MENU
  1
.
  9
$ELEVATION
 40
0.0
  9
$PELEVATION
 40
0.0
  9
$THICKNESS
 40
0.0
  9
$LIMCHECK
 70
     0
  9
$CHAMFERA
 40
0.0
  9
$CHAMFERB
 40
0.0
  9
$CHAMFERC
 40
0.0
  9
$CHAMFERD
 40
0.0
  9
$SKPOLY
 70
     0
  9
$TDCREATE
 40
2459135.607145625
  9
$TDUCREATE
 40
2459135.232145625
  9
$TDUPDATE
 40
2459135.60714735
  9
$TDUUPDATE
 40
2459135.23214735
  9
$TDINDWG
 40
0.0000000116
  9
$TDUSRTIMER
 40
0.0000000116
  9
$USRTIMER
 70
     1
  9
$ANGBASE
 50
0.0
  9
$ANGDIR
 70
     0
  9
$PDMODE
 70
     0
  9
$PDSIZE
 40
0.0
  9
$PLINEWID
 40
0.0
  9
$SPLFRAME
 70
     0
  9
$SPLINETYPE
 70
     6
  9
$SPLINESEGS
 70
     8
  9
$HANDSEED
  5
36A
  9
$SURFTAB1
 70
     6
  9
$SURFTAB2
 70
     6
  9
$SURFTYPE
 70
     6
  9
$SURFU
 70
     6
  9
$SURFV
 70
     6
  9
$UCSBASE
  2

  9
$UCSNAME
  2

  9
$UCSORG
 10
0.0
 20
0.0
 30
0.0
  9
$UCSXDIR
 10
1.0
 20
0.0
 30
0.0
  9
$UCSYDIR
 10
0.0
 20
1.0
 30
0.0
  9
$UCSORTHOREF
  2

  9
$UCSORTHOVIEW
 70
     0
  9
$UCSORGTOP
 10
0.0
 20
0.0
 30
0.0
  9
$UCSORGBOTTOM
 10
0.0
 20
0.0
 30
0.0
  9
$UCSORGLEFT
 10
0.0
 20
0.0
 30
0.0
  9
$UCSORGRIGHT
 10
0.0
 20
0.0
 30
0.0
  9
$UCSORGFRONT
 10
0.0
 20
0.0
 30
0.0
  9
$UCSORGBACK
 10
0.0
 20
0.0
 30
0.0
  9
$PUCSBASE
  2

  9
$PUCSNAME
  2

  9
$PUCSORG
 10
0.0
 20
0.0
 30
0.0
  9
$PUCSXDIR
 10
1.0
 20
0.0
 30
0.0
  9
$PUCSYDIR
 10
0.0
 20
1.0
 30
0.0
  9
$PUCSORTHOREF
  2

  9
$PUCSORTHOVIEW
 70
     0
  9
$PUCSORGTOP
 10
0.0
 20
0.0
 30
0.0
  9
$PUCSORGBOTTOM
 10
0.0
 20
0.0
 30
0.0
  9
$PUCSORGLEFT
 10
0.0
 20
0.0
 30
0.0
  9
$PUCSORGRIGHT
 10
0.0
 20
0.0
 30
0.0
  9
$PUCSORGFRONT
 10
0.0
 20
0.0
 30
0.0
  9
$PUCSORGBACK
 10
0.0
 20
0.0
 30
0.0
  9
$USERI1
 70
     0
  9
$USERI2
 70
     0
  9
$USERI3
 70
     0
  9
$USERI4
 70
     0
  9
$USERI5
 70
     0
  9
$USERR1
 40
0.0
  9
$USERR2
 40
0.0
  9
$USERR3
 40
0.0
  9
$USERR4
 40
0.0
  9
$USERR5
 40
0.0
  9
$WORLDVIEW
 70
     1
  9
$SHADEDGE
 70
     3
  9
$SHADEDIF
 70
    70
  9
$TILEMODE
 70
     1
  9
$MAXACTVP
 70
    64
  9
$PINSBASE
 10
0.0
 20
0.0
 30
0.0
  9
$PLIMCHECK
 70
     0
  9
$PEXTMIN
 10
-9.375
 20
-25.0
 30
0.0
  9
$PEXTMAX
 10
525.0
 20
371.25
 30
0.0
  9
$PLIMMIN
 10
-7.5
 20
-20.0
  9
$PLIMMAX
 10
420.0
 20
297.0
  9
$UNITMODE
 70
     0
  9
$VISRETAIN
 70
     1
  9
$PLINEGEN
 70
     0
  9
$PSLTSCALE
 70
     0
  9
$TREEDEPTH
 70
  3020
  9
$CMLSTYLE
  2
Standard
  9
$CMLJUST
 70
     0
  9
$CMLSCALE
 40
1.0
  9
$PROXYGRAPHICS
 70
     1
  9
$MEASUREMENT
 70
     1
  9
$CELWEIGHT
370
    -1
  9
$ENDCAPS
280
     0
  9
$JOINSTYLE
280
     0
  9
$LWDISPLAY
290
     1
  9
$INSUNITS
 70
     0
  9
$HYPERLINKBASE
  1

  9
$STYLESHEET
  1

  9
$XEDIT
290
     1
  9
$CEPSNTYPE
380
     0
  9
$PSTYLEMODE
290
     1
  9
$FINGERPRINTGUID
  2
{34d4b1a9-13d3-4acc-aed1-50bbe71f802e}
  9
$VERSIONGUID
  2
{FAEB1C32-E019-11D5-929B-00C0DF256EC4}
  9
$EXTNAMES
290
     1
  9
$PSVPSCALE
 40
0.0
  9
$OLESTARTUP
290
     0
  0
ENDSEC
  0
SECTION
  2
CLASSES
  0
CLASS
  1
ACDBDICTIONARYWDFLT
  2
AcDbDictionaryWithDefault
  3
ObjectDBX Classes
 90
        0
280
     0
281
     0
  0
CLASS
  1
VISUALSTYLE
  2
AcDbVisualStyle
  3
ObjectDBX Classes
 90
     4095
280
     0
281
     0
  0
CLASS
  1
MATERIAL
  2
AcDbMaterial
  3
ObjectDBX Classes
 90
     1153
280
     0
281
     0
  0
CLASS
  1
SCALE
  2
AcDbScale
  3
ObjectDBX Classes
 90
     1153
280
     0
281
     0
  0
CLASS
  1
TABLESTYLE
  2
AcDbTableStyle
  3
ObjectDBX Classes
 90
     4095
280
     0
281
     0
  0
CLASS
  1
MLEADERSTYLE
  2
AcDbMLeaderStyle
  3
ACDB_MLEADERSTYLE_CLASS
 90
     4095
280
     0
281
     0
  0
CLASS
  1
SUN
  2
AcDbSun
  3
SCENEOE
 90
     1153
280
     0
281
     0
  0
CLASS
  1
RASTERVARIABLES
  2
AcDbRasterVariables
  3
ISM
 90
        0
280
     0
281
     0
  0
CLASS
  1
DICTIONARYVAR
  2
AcDbDictionaryVar
  3
ObjectDBX Classes
 90
        0
280
     0
281
     0
  0
CLASS
  1
ACDBPLACEHOLDER
  2
AcDbPlaceHolder
  3
ObjectDBX Classes
 90
        0
280
     0
281
     0
  0
CLASS
  1
LAYOUT
  2
AcDbLayout
  3
ObjectDBX Classes
 90
        0
280
     0
281
     0
  0
ENDSEC
  0
SECTION
  2
TABLES
  0
TABLE
  2
VPORT
  5
8
102
{ACAD_XDICTIONARY
360
32D
102
}
330
0
100
AcDbSymbolTable
 70
     1
  0
VPORT
  5
29
330
8
100
AcDbSymbolTableRecord
100
AcDbViewportTableRecord
  2
*Active
 70
     0
 10
0.0
 20
0.0
 11
1.0
 21
1.0
 12
161.5651306568913
 22
124.8357045980762
 13
0.0
 23
0.0
 14
0.5
 24
0.5
 15
0.5
 25
0.5
 16
0.0
 26
0.0
 36
1.0
 17
0.0
 27
0.0
 37
0.0
 40
216.2250203440399
 41
1.427704315280659
 42
50.0
 43
0.0
 44
0.0
 50
0.0
 51
0.0
 71
     0
 72
 20000
 73
     1
 74
     3
 75
     0
 76
     0
 77
     0
 78
     0
281
     0
 65
     1
110
0.0
120
0.0
130
0.0
111
1.0
121
0.0
131
0.0
112
0.0
122
1.0
132
0.0
 79
     0
146
0.0
  0
ENDTAB
  0
TABLE
  2
LTYPE
  5
5
330
0
100
AcDbSymbolTable
 70
     1
  0
LTYPE
  5
14
330
5
100
AcDbSymbolTableRecord
100
AcDbLinetypeTableRecord
  2
ByBlock
 70
     0
  3

 72
    65
 73
     0
 40
0.0
  0
LTYPE
  5
15
330
5
100
AcDbSymbolTableRecord
100
AcDbLinetypeTableRecord
  2
ByLayer
 70
     0
  3

 72
    65
 73
     0
 40
0.0
  0
LTYPE
  5
16
330
5
100
AcDbSymbolTableRecord
100
AcDbLinetypeTableRecord
  2
Continuous
 70
     0
  3
Solid line
 72
    65
 73
     0
 40
0.0
  0
ENDTAB
  0
TABLE
  2
LAYER
  5
2
330
0
100
AcDbSymbolTable
 70
     3
  0
LAYER
  5
10
330
2
100
AcDbSymbolTableRecord
100
AcDbLayerTableRecord
  2
0
 70
     0
 62
     7
  6
Continuous
370
    13
390
F
  0
LAYER
  5
70
330
2
100
AcDbSymbolTableRecord
100
AcDbLayerTableRecord
  2
レイヤー 1
 70
     0
 62
     7
  6
Continuous
370
    13
390
F
  0
LAYER
  5
71
330
2
100
AcDbSymbolTableRecord
100
AcDbLayerTableRecord
  2
rcviewportframe
 70
     0
 62
    -7
  6
Continuous
370
    -3
390
F
  0
ENDTAB
  0
TABLE
  2
STYLE
  5
3
330
0
100
AcDbSymbolTable
 70
     5
  0
STYLE
  5
11
330
3
100
AcDbSymbolTableRecord
100
AcDbTextStyleTableRecord
  2
Standard
 70
     0
 40
0.0
 41
1.0
 50
0.0
 71
     0
 42
0.2
  3
txt.shx
  4
extfont
  0
STYLE
  5
72
330
3
100
AcDbSymbolTableRecord
100
AcDbTextStyleTableRecord
  2
MS PGothic
 70
     0
 40
0.0
 41
1.0
 50
0.0
 71
     0
 42
0.2
  3
MS PGothic.ttf
  4

1001
ACAD
1000
ＭＳ Ｐゴシック
1071
    32818
  0
STYLE
  5
73
330
3
100
AcDbSymbolTableRecord
100
AcDbTextStyleTableRecord
  2
VERTICAL
 70
     4
 40
0.0
 41
1.0
 50
0.0
 71
     0
 42
0.2
  3
txt.shx
  4
extfont
  0
STYLE
  5
74
330
3
100
AcDbSymbolTableRecord
100
AcDbTextStyleTableRecord
  2
VERTICAL MS PGothic
 70
     0
 40
0.0
 41
1.0
 50
0.0
 71
     0
 42
0.2
  3
MS PGothic.ttf
  4

1001
ACAD
1000
@ＭＳ Ｐゴシック
1071
    32818
  0
STYLE
  5
31F
330
3
100
AcDbSymbolTableRecord
100
AcDbTextStyleTableRecord
  2
HGPｺﾞｼｯｸM
 70
     0
 40
0.0
 41
1.0
 50
0.0
 71
     0
 42
0.2
  3
HGRGM.TTC
  4
extfont
1001
ACAD
1000
HGPｺﾞｼｯｸM
1071
    32818
  0
ENDTAB
  0
TABLE
  2
VIEW
  5
6
330
0
100
AcDbSymbolTable
 70
     0
  0
ENDTAB
  0
TABLE
  2
UCS
  5
7
330
0
100
AcDbSymbolTable
 70
     0
  0
ENDTAB
  0
TABLE
  2
APPID
  5
9
330
0
100
AcDbSymbolTable
 70
     3
  0
APPID
  5
12
330
9
100
AcDbSymbolTableRecord
100
AcDbRegAppTableRecord
  2
ACAD
 70
     0
  0
APPID
  5
6E
330
9
100
AcDbSymbolTableRecord
100
AcDbRegAppTableRecord
  2
RootPro CAD
 70
     0
  0
APPID
  5
367
330
9
100
AcDbSymbolTableRecord
100
AcDbRegAppTableRecord
  2
ACAD_MLEADERVER
 70
     0
  0
ENDTAB
  0
TABLE
  2
DIMSTYLE
  5
A
330
0
100
AcDbSymbolTable
 70
     1
100
AcDbDimStyleTable
  0
DIMSTYLE
105
27
330
A
100
AcDbSymbolTableRecord
100
AcDbDimStyleTableRecord
  2
Standard
 70
     0
178
     0
340
11
  0
ENDTAB
  0
TABLE
  2
BLOCK_RECORD
  5
1
330
0
100
AcDbSymbolTable
 70
     0
  0
BLOCK_RECORD
  5
1F
330
1
100
AcDbSymbolTableRecord
100
AcDbBlockTableRecord
  2
*Model_Space
340
22
  0
BLOCK_RECORD
  5
1B
330
1
100
AcDbSymbolTableRecord
100
AcDbBlockTableRecord
  2
*Paper_Space
340
1E
  0
ENDTAB
  0
ENDSEC
  0
SECTION
  2
BLOCKS
  0
BLOCK
  5
20
330
1F
100
AcDbEntity
  8
0
100
AcDbBlockBegin
  2
*Model_Space
 70
     0
 10
0.0
 20
0.0
 30
0.0
  3
*Model_Space
  1

  0
ENDBLK
  5
21
330
1F
100
AcDbEntity
  8
0
100
AcDbBlockEnd
  0
BLOCK
  5
1C
330
1B
100
AcDbEntity
 67
     1
  8
0
100
AcDbBlockBegin
  2
*Paper_Space
 70
     0
 10
0.0
 20
0.0
 30
0.0
  3
*Paper_Space
  1

  0
ENDBLK
  5
1D
330
1B
100
AcDbEntity
 67
     1
  8
0
100
AcDbBlockEnd
  0
ENDSEC
  0
SECTION
  2
ENTITIES
  0
LINE
  5
75
330
1F
100
AcDbEntity
  8
レイヤー 1
 62
     7
370
    13
100
AcDbLine
 10
35.68685377863861
 20
95.9547425109649
 30
0.0
 11
35.60227668447573
 21
95.9971171854335
 31
0.0
  0
LINE
  5
76
330
1F
100
AcDbEntity
  8
レイヤー 1
 62
     7
370
    13
100
AcDbLine
 10
34.92497091207559
 20
96.03931960512782
 30
0.0
 11
26.83933180819423
 21
95.61608962476484
 31
0.0
  0
LINE
  5
77
330
1F
100
AcDbEntity
  8
レイヤー 1
 62
     7
370
    13
100
AcDbLine
 10
24.51096402448812
 20
90.45137472805257
 30
0.0
 11
24.59554111865101
 21
90.40900005358401
 31
0.0
  0
LINE
  5
78
330
1F
100
AcDbEntity
  8
レイヤー 1
 62
     7
370
    13
100
AcDbLine
 10
26.33135247889413
 20
92.99144362932728
 30
0.0
 11
26.37355489858845
 21
92.99144362932728
 31
0.0
  0
LINE
  5
79
330
1F
100
AcDbEntity
  8
レイヤー 1
 62
     7
370
    13
100
AcDbLine
 10
23.74890890315086
 20
92.94906895485872
 30
0.0
 11
23.66433180898798
 21
92.94906895485872
 31
0.0
  0
LINE
  5
7A
330
1F
100
AcDbEntity
  8
レイヤー 1
 62
     7
370
    13
100
AcDbLine
 10
24.04518711488234
 20
95.44676318166486
 30
0.0
 11
15.95954801100098
 21
95.02336094652762
 31
0.0
  0
LINE
  5
7B
330
1F
100
AcDbEntity
  8
レイヤー 1
 62
     7
370
    13
100
AcDbLine
 10
17.82231113987557
 20
86.42974251334618
 30
0.0
 11
17.90688823403845
 21
86.42974251334618
 31
0.0
  0
LINE
  5
7C
330
1F
100
AcDbEntity
  8
レイヤー 1
 62
     7
370
    13
100
AcDbLine
 10
14.7318882348322
 20
92.18701383352143
 30
0.0
 11
17.61061002230696
 21
86.59906895644622
 31
0.0
  0
LINE
  5
7D
330
1F
100
AcDbEntity
  8
レイヤー 1
 62
     7
370
    13
100
AcDbLine
 10
15.02833870133794
 20
94.76945740926473
 30
0.0
 11
14.68968581513789
 21
92.44108962555862
 31
0.0
  0
LINE
  5
7E
330
1F
100
AcDbEntity
  8
レイヤー 1
 62
     7
370
    13
100
AcDbLine
 10
301.4556444023005
 20
26.52814476356463
 30
0.0
 11
301.4980190767692
 21
26.52814476356463
 31
0.0
  0
LINE
  5
7F
330
1F
100
AcDbEntity
  8
レイヤー 1
 62
     7
370
    13
100
AcDbLine
 10
308.5253248475817
 20
35.79906896914619
 30
0.0
 11
35.77160312757573
 21
96.20881830300212
 31
0.0
  0
LINE
  5
80
330
1F
100
AcDbEntity
  8
レイヤー 1
 62
     7
370
    13
100
AcDbLine
 10
17.73756179093841
 20
86.21804139577756
 30
0.0
 11
18.92301914741289
 21
85.96413785851465
 31
0.0
  0
LINE
  5
81
330
1F
100
AcDbEntity
  8
レイヤー 1
 62
     7
370
    13
100
AcDbLine
 10
69.97692267197581
 20
80.16431960909657
 30
0.0
 11
71.16220777367602
 21
80.84179763627094
 31
0.0
  0
POINT
  5
82
330
1F
100
AcDbEntity
  8
レイヤー 1
 62
     7
370
    13
100
AcDbPoint
 10
71.16220777367602
 20
80.84179763627094
 30
0.0
  0
LINE
  5
83
330
1F
100
AcDbEntity
  8
レイヤー 1
 62
     7
370
    13
100
AcDbLine
 10
71.16220777367602
 20
80.84179763627094
 30
0.0
 11
71.16220777367602
 21
80.88400005596526
 31
0.0
  0
LINE
  5
84
330
1F
100
AcDbEntity
  8
レイヤー 1
 62
     7
370
    13
100
AcDbLine
 10
71.16220777367602
 20
80.88400005596526
 30
0.0
 11
71.16220777367602
 21
80.92637473043382
 31
0.0
  0
POINT
  5
85
330
1F
100
AcDbEntity
  8
レイヤー 1
 62
     7
370
    13
100
AcDbPoint
 10
69.89234557781293
 20
80.20669428356513
 30
0.0
  0
LINE
  5
86
330
1F
100
AcDbEntity
  8
レイヤー 1
 62
     7
370
    13
100
AcDbLine
 10
69.89234557781293
 20
80.20669428356513
 30
0.0
 11
69.89234557781293
 21
80.16431960909657
 31
0.0
  0
LINE
  5
87
330
1F
100
AcDbEntity
  8
レイヤー 1
 62
     7
370
    13
100
AcDbLine
 10
69.89234557781293
 20
80.16431960909657
 30
0.0
 11
69.93454799750722
 21
80.16431960909657
 31
0.0
  0
LINE
  5
88
330
1F
100
AcDbEntity
  8
レイヤー 1
 62
     7
370
    13
100
AcDbLine
 10
69.93454799750722
 20
80.16431960909657
 30
0.0
 11
69.97692267197581
 21
80.16431960909657
 31
0.0
  0
LINE
  5
89
330
1F
100
AcDbEntity
  8
レイヤー 1
 62
     7
370
    13
100
AcDbLine
 10
69.89234557781293
 20
80.24906895803369
 30
0.0
 11
69.89234557781293
 21
80.20669428356513
 31
0.0
  0
LINE
  5
8A
330
1F
100
AcDbEntity
  8
レイヤー 1
 62
     7
370
    13
100
AcDbLine
 10
266.5306444110319
 20
36.64570118464636
 30
0.0
 11
267.7161017675063
 21
37.28080453735217
 31
0.0
  0
SPLINE
  5
8B
330
1F
100
AcDbEntity
  8
レイヤー 1
 62
     7
370
    13
100
AcDbSpline
210
0.0
220
0.0
230
1.0
 70
     8
 71
     3
 72
    17
 73
    13
 74
     0
 42
0.0000000001
 43
0.0000000001
 40
0.0
 40
0.0
 40
0.0
 40
0.0
 40
1.0
 40
1.0
 40
1.0
 40
2.0
 40
2.0
 40
2.0
 40
3.0
 40
3.0
 40
3.0
 40
4.0
 40
4.0
 40
4.0
 40
4.0
 10
267.7161017675063
 20
37.28080453735217
 30
0.0
 10
267.7161017675063
 20
37.28080453735217
 30
0.0
 10
267.7161017675063
 20
37.28080453735217
 30
0.0
 10
267.7161017675063
 20
37.28080453735217
 30
0.0
 10
267.7161017675063
 20
37.28080453735217
 30
0.0
 10
267.7161017675063
 20
37.32317921182073
 30
0.0
 10
267.7161017675063
 20
37.32317921182073
 30
0.0
 10
267.7161017675063
 20
37.32317921182073
 30
0.0
 10
267.7581319324263
 20
37.32317921182073
 30
0.0
 10
267.7581319324263
 20
37.32317921182073
 30
0.0
 10
267.7581319324263
 20
37.32317921182073
 30
0.0
 10
267.7161017675063
 20
37.32317921182073
 30
0.0
 10
267.7161017675063
 20
37.32317921182073
 30
0.0
  0
LINE
  5
8C
330
1F
100
AcDbEntity
  8
レイヤー 1
 62
     7
370
    13
100
AcDbLine
 10
267.7161017675063
 20
37.32317921182073
 30
0.0
 11
267.7161017675063
 21
37.36538163151505
 31
0.0
  0
POINT
  5
8D
330
1F
100
AcDbEntity
  8
レイヤー 1
 62
     7
370
    13
100
AcDbPoint
 10
266.4458950620947
 20
36.64570118464636
 30
0.0
  0
LINE
  5
8E
330
1F
100
AcDbEntity
  8
レイヤー 1
 62
     7
370
    13
100
AcDbLine
 10
266.4458950620947
 20
36.64570118464636
 30
0.0
 11
266.4882697365632
 21
36.64570118464636
 31
0.0
  0
LINE
  5
8F
330
1F
100
AcDbEntity
  8
レイヤー 1
 62
     7
370
    13
100
AcDbLine
 10
266.4882697365632
 20
36.64570118464636
 30
0.0
 11
266.5306444110319
 21
36.64570118464636
 31
0.0
  0
POINT
  5
90
330
1F
100
AcDbEntity
  8
レイヤー 1
 62
     7
370
    13
100
AcDbPoint
 10
266.4458950620947
 20
36.64570118464636
 30
0.0
  0
LINE
  5
91
330
1F
100
AcDbEntity
  8
レイヤー 1
 62
     7
370
    13
100
AcDbLine
 10
22.14022156631344
 20
82.32336094970262
 30
0.0
 11
23.79128357761944
 21
81.9001309693397
 31
0.0
  0
LINE
  5
92
330
1F
100
AcDbEntity
  8
レイヤー 1
 62
     7
370
    13
100
AcDbLine
 10
31.19961690910068
 20
86.3873678388776
 30
0.0
 11
29.50635247810038
 21
86.72602072507766
 31
0.0
  0
LINE
  5
93
330
1F
100
AcDbEntity
  8
レイヤー 1
 62
     7
370
    13
100
AcDbLine
 10
29.46397780363182
 20
86.72602072507766
 30
0.0
 11
19.21929735914438
 21
86.175666721309
 31
0.0
  0
LINE
  5
94
330
1F
100
AcDbEntity
  8
レイヤー 1
 62
     7
370
    13
100
AcDbLine
 10
23.96061002071946
 20
90.87477696318979
 30
0.0
 11
23.96061002071946
 21
90.8324022887212
 31
0.0
  0
LINE
  5
95
330
1F
100
AcDbEntity
  8
レイヤー 1
 62
     7
370
    13
100
AcDbLine
 10
19.21929735914438
 20
86.175666721309
 30
0.0
 11
19.1769226846758
 21
86.175666721309
 31
0.0
  0
LINE
  5
96
330
1F
100
AcDbEntity
  8
レイヤー 1
 62
     7
370
    13
100
AcDbLine
 10
19.1769226846758
 20
86.175666721309
 30
0.0
 11
19.13454801020723
 21
86.175666721309
 31
0.0
  0
LINE
  5
97
330
1F
100
AcDbEntity
  8
レイヤー 1
 62
     7
370
    13
100
AcDbLine
 10
19.13454801020723
 20
86.175666721309
 30
0.0
 11
19.09234559051292
 21
86.175666721309
 31
0.0
  0
LINE
  5
98
330
1F
100
AcDbEntity
  8
レイヤー 1
 62
     7
370
    13
100
AcDbLine
 10
19.09234559051292
 20
86.175666721309
 30
0.0
 11
19.04997091604434
 21
86.13346430161468
 31
0.0
  0
LINE
  5
99
330
1F
100
AcDbEntity
  8
レイヤー 1
 62
     7
370
    13
100
AcDbLine
 10
19.04997091604434
 20
86.13346430161468
 30
0.0
 11
19.00759624157577
 21
86.09108962714612
 31
0.0
  0
LINE
  5
9A
330
1F
100
AcDbEntity
  8
レイヤー 1
 62
     7
370
    13
100
AcDbLine
 10
19.00759624157577
 20
86.09108962714612
 30
0.0
 11
18.96522156710719
 21
86.04871495267753
 31
0.0
  0
LINE
  5
9B
330
1F
100
AcDbEntity
  8
レイヤー 1
 62
     7
370
    13
100
AcDbLine
 10
18.96522156710719
 20
86.04871495267753
 30
0.0
 11
18.96522156710719
 21
86.00651253298324
 31
0.0
  0
LINE
  5
9C
330
1F
100
AcDbEntity
  8
レイヤー 1
 62
     7
370
    13
100
AcDbLine
 10
18.96522156710719
 20
86.00651253298324
 30
0.0
 11
18.92301914741289
 21
85.96413785851465
 31
0.0
  0
LINE
  5
9D
330
1F
100
AcDbEntity
  8
レイヤー 1
 62
     7
370
    13
100
AcDbLine
 10
18.92301914741289
 20
85.96413785851465
 30
0.0
 11
18.92301914741289
 21
85.92176318404609
 31
0.0
  0
LINE
  5
9E
330
1F
100
AcDbEntity
  8
レイヤー 1
 62
     7
370
    13
100
AcDbLine
 10
18.92301914741289
 20
85.92176318404609
 30
0.0
 11
18.88064447294431
 21
85.87938850957752
 31
0.0
  0
LINE
  5
9F
330
1F
100
AcDbEntity
  8
レイヤー 1
 62
     7
370
    13
100
AcDbLine
 10
18.88064447294431
 20
85.87938850957752
 30
0.0
 11
18.88064447294431
 21
85.83701383510893
 31
0.0
  0
LINE
  5
A0
330
1F
100
AcDbEntity
  8
レイヤー 1
 62
     7
370
    13
100
AcDbLine
 10
18.88064447294431
 20
85.83701383510893
 30
0.0
 11
18.88064447294431
 21
85.79481141541464
 31
0.0
  0
LINE
  5
A1
330
1F
100
AcDbEntity
  8
レイヤー 1
 62
     7
370
    13
100
AcDbLine
 10
18.88064447294431
 20
85.79481141541464
 30
0.0
 11
18.83826979847574
 21
85.75243674094605
 31
0.0
  0
LINE
  5
A2
330
1F
100
AcDbEntity
  8
レイヤー 1
 62
     7
370
    13
100
AcDbLine
 10
18.83826979847574
 20
85.75243674094605
 30
0.0
 11
18.83826979847574
 21
85.71006206647749
 31
0.0
  0
LINE
  5
A3
330
1F
100
AcDbEntity
  8
レイヤー 1
 62
     7
370
    13
100
AcDbLine
 10
18.71131802984428
 20
84.86342985097733
 30
0.0
 11
18.71131802984428
 21
84.82105517650876
 31
0.0
  0
LINE
  5
A4
330
1F
100
AcDbEntity
  8
レイヤー 1
 62
     7
370
    13
100
AcDbLine
 10
18.71131802984428
 20
84.82105517650876
 30
0.0
 11
18.71131802984428
 21
84.7786805020402
 31
0.0
  0
LINE
  5
A5
330
1F
100
AcDbEntity
  8
レイヤー 1
 62
     7
370
    13
100
AcDbLine
 10
18.71131802984428
 20
84.7786805020402
 30
0.0
 11
18.71131802984428
 21
84.73647808234588
 31
0.0
  0
LINE
  5
A6
330
1F
100
AcDbEntity
  8
レイヤー 1
 62
     7
370
    13
100
AcDbLine
 10
18.71131802984428
 20
84.73647808234588
 30
0.0
 11
18.71131802984428
 21
84.6941034078773
 31
0.0
  0
LINE
  5
A7
330
1F
100
AcDbEntity
  8
レイヤー 1
 62
     7
370
    13
100
AcDbLine
 10
18.71131802984428
 20
84.6941034078773
 30
0.0
 11
18.71131802984428
 21
84.65172873340873
 31
0.0
  0
LINE
  5
A8
330
1F
100
AcDbEntity
  8
レイヤー 1
 62
     7
370
    13
100
AcDbLine
 10
18.71131802984428
 20
84.65172873340873
 30
0.0
 11
18.7535204495386
 21
84.60935405894017
 31
0.0
  0
LINE
  5
A9
330
1F
100
AcDbEntity
  8
レイヤー 1
 62
     7
370
    13
100
AcDbLine
 10
18.7535204495386
 20
84.60935405894017
 30
0.0
 11
18.7535204495386
 21
84.56715163924585
 31
0.0
  0
LINE
  5
AA
330
1F
100
AcDbEntity
  8
レイヤー 1
 62
     7
370
    13
100
AcDbLine
 10
18.7535204495386
 20
84.56715163924585
 30
0.0
 11
18.7535204495386
 21
84.52477696477729
 31
0.0
  0
LINE
  5
AB
330
1F
100
AcDbEntity
  8
レイヤー 1
 62
     7
370
    13
100
AcDbLine
 10
18.7535204495386
 20
84.52477696477729
 30
0.0
 11
18.79589512400717
 21
84.4824022903087
 31
0.0
  0
LINE
  5
AC
330
1F
100
AcDbEntity
  8
レイヤー 1
 62
     7
370
    13
100
AcDbLine
 10
18.79589512400717
 20
84.4824022903087
 30
0.0
 11
18.79589512400717
 21
84.44002761584014
 31
0.0
  0
LINE
  5
AD
330
1F
100
AcDbEntity
  8
レイヤー 1
 62
     7
370
    13
100
AcDbLine
 10
18.83826979847574
 20
85.71006206647749
 30
0.0
 11
18.71131802984428
 21
84.86342985097733
 31
0.0
  0
LINE
  5
AE
330
1F
100
AcDbEntity
  8
レイヤー 1
 62
     7
370
    13
100
AcDbLine
 10
292.8618537143449
 20
22.29481143128962
 30
0.0
 11
294.5554626548936
 21
21.95598629031531
 31
0.0
  0
LINE
  5
AF
330
1F
100
AcDbEntity
  8
レイヤー 1
 62
     7
370
    13
100
AcDbLine
 10
301.7519226140321
 20
26.44339541462747
 30
0.0
 11
300.0586581830318
 21
26.86679764976469
 31
0.0
  0
LINE
  5
B0
330
1F
100
AcDbEntity
  8
レイヤー 1
 62
     7
370
    13
100
AcDbLine
 10
301.6247985906264
 20
24.70775630915861
 30
0.0
 11
301.6247985906264
 21
24.75013098362717
 31
0.0
  0
LINE
  5
B1
330
1F
100
AcDbEntity
  8
レイヤー 1
 62
     7
370
    13
100
AcDbLine
 10
301.6247985906264
 20
24.75013098362717
 30
0.0
 11
301.6671732650949
 21
24.75013098362717
 31
0.0
  0
LINE
  5
B2
330
1F
100
AcDbEntity
  8
レイヤー 1
 62
     7
370
    13
100
AcDbLine
 10
301.6671732650949
 20
24.75013098362717
 30
0.0
 11
301.6671732650949
 21
24.79233340332149
 31
0.0
  0
LINE
  5
B3
330
1F
100
AcDbEntity
  8
レイヤー 1
 62
     7
370
    13
100
AcDbLine
 10
301.6671732650949
 20
24.79233340332149
 30
0.0
 11
301.7095479395634
 21
24.83470807779008
 31
0.0
  0
LINE
  5
B4
330
1F
100
AcDbEntity
  8
レイヤー 1
 62
     7
370
    13
100
AcDbLine
 10
301.7095479395634
 20
24.83470807779008
 30
0.0
 11
301.7095479395634
 21
24.87708275225864
 31
0.0
  0
LINE
  5
B5
330
1F
100
AcDbEntity
  8
レイヤー 1
 62
     7
370
    13
100
AcDbLine
 10
301.7095479395634
 20
24.87708275225864
 30
0.0
 11
301.7519226140321
 21
24.91945742672721
 31
0.0
  0
LINE
  5
B6
330
1F
100
AcDbEntity
  8
レイヤー 1
 62
     7
370
    13
100
AcDbLine
 10
301.7519226140321
 20
24.91945742672721
 30
0.0
 11
301.7942972885006
 21
25.00403452089009
 31
0.0
  0
LINE
  5
B7
330
1F
100
AcDbEntity
  8
レイヤー 1
 62
     7
370
    13
100
AcDbLine
 10
301.7942972885006
 20
25.00403452089009
 30
0.0
 11
301.7942972885006
 21
25.04640919535868
 31
0.0
  0
LINE
  5
B8
330
1F
100
AcDbEntity
  8
レイヤー 1
 62
     7
370
    13
100
AcDbLine
 10
301.7942972885006
 20
25.04640919535868
 30
0.0
 11
301.7942972885006
 21
25.08878386982724
 31
0.0
  0
LINE
  5
B9
330
1F
100
AcDbEntity
  8
レイヤー 1
 62
     7
370
    13
100
AcDbLine
 10
301.7942972885006
 20
25.08878386982724
 30
0.0
 11
301.7942972885006
 21
25.13098628952156
 31
0.0
  0
LINE
  5
BA
330
1F
100
AcDbEntity
  8
レイヤー 1
 62
     7
370
    13
100
AcDbLine
 10
301.7942972885006
 20
25.13098628952156
 30
0.0
 11
301.9210768023578
 21
25.97779075979597
 31
0.0
  0
POINT
  5
BB
330
1F
100
AcDbEntity
  8
レイヤー 1
 62
     7
370
    13
100
AcDbPoint
 10
301.9210768023578
 20
25.97779075979597
 30
0.0
  0
LINE
  5
BC
330
1F
100
AcDbEntity
  8
レイヤー 1
 62
     7
370
    13
100
AcDbLine
 10
301.9210768023578
 20
25.97779075979597
 30
0.0
 11
301.9210768023578
 21
26.02016543426453
 31
0.0
  0
LINE
  5
BD
330
1F
100
AcDbEntity
  8
レイヤー 1
 62
     7
370
    13
100
AcDbLine
 10
301.9210768023578
 20
26.02016543426453
 30
0.0
 11
301.9210768023578
 21
26.06236785395885
 31
0.0
  0
LINE
  5
BE
330
1F
100
AcDbEntity
  8
レイヤー 1
 62
     7
370
    13
100
AcDbLine
 10
301.9210768023578
 20
26.06236785395885
 30
0.0
 11
301.9210768023578
 21
26.10474252842741
 31
0.0
  0
LINE
  5
BF
330
1F
100
AcDbEntity
  8
レイヤー 1
 62
     7
370
    13
100
AcDbLine
 10
301.9210768023578
 20
26.10474252842741
 30
0.0
 11
301.9210768023578
 21
26.147117202896
 31
0.0
  0
LINE
  5
C0
330
1F
100
AcDbEntity
  8
レイヤー 1
 62
     7
370
    13
100
AcDbLine
 10
301.9210768023578
 20
26.147117202896
 30
0.0
 11
301.9210768023578
 21
26.18931962259032
 31
0.0
  0
LINE
  5
C1
330
1F
100
AcDbEntity
  8
レイヤー 1
 62
     7
370
    13
100
AcDbLine
 10
301.9210768023578
 20
26.18931962259032
 30
0.0
 11
301.9210768023578
 21
26.23169429705888
 31
0.0
  0
LINE
  5
C2
330
1F
100
AcDbEntity
  8
レイヤー 1
 62
     7
370
    13
100
AcDbLine
 10
301.9210768023578
 20
26.23169429705888
 30
0.0
 11
301.9210768023578
 21
26.27406897152744
 31
0.0
  0
LINE
  5
C3
330
1F
100
AcDbEntity
  8
レイヤー 1
 62
     7
370
    13
100
AcDbLine
 10
301.9210768023578
 20
26.27406897152744
 30
0.0
 11
301.8790466374378
 21
26.31644364599603
 31
0.0
  0
LINE
  5
C4
330
1F
100
AcDbEntity
  8
レイヤー 1
 62
     7
370
    13
100
AcDbLine
 10
301.8790466374378
 20
26.31644364599603
 30
0.0
 11
301.8790466374378
 21
26.35881832046459
 31
0.0
  0
LINE
  5
C5
330
1F
100
AcDbEntity
  8
レイヤー 1
 62
     7
370
    13
100
AcDbLine
 10
301.8790466374378
 20
26.35881832046459
 30
0.0
 11
301.8366719629693
 21
26.35881832046459
 31
0.0
  0
LINE
  5
C6
330
1F
100
AcDbEntity
  8
レイヤー 1
 62
     7
370
    13
100
AcDbLine
 10
301.8366719629693
 20
26.35881832046459
 30
0.0
 11
301.8366719629693
 21
26.40102074015891
 31
0.0
  0
LINE
  5
C7
330
1F
100
AcDbEntity
  8
レイヤー 1
 62
     7
370
    13
100
AcDbLine
 10
301.8366719629693
 20
26.40102074015891
 30
0.0
 11
301.7942972885006
 21
26.40102074015891
 31
0.0
  0
LINE
  5
C8
330
1F
100
AcDbEntity
  8
レイヤー 1
 62
     7
370
    13
100
AcDbLine
 10
301.7942972885006
 20
26.40102074015891
 30
0.0
 11
301.7942972885006
 21
26.44339541462747
 31
0.0
  0
LINE
  5
C9
330
1F
100
AcDbEntity
  8
レイヤー 1
 62
     7
370
    13
100
AcDbLine
 10
301.7942972885006
 20
26.44339541462747
 30
0.0
 11
301.7519226140321
 21
26.44339541462747
 31
0.0
  0
LINE
  5
CA
330
1F
100
AcDbEntity
  8
レイヤー 1
 62
     7
370
    13
100
AcDbLine
 10
301.7519226140321
 20
26.44339541462747
 30
0.0
 11
301.7095479395634
 21
26.44339541462747
 31
0.0
  0
LINE
  5
CB
330
1F
100
AcDbEntity
  8
レイヤー 1
 62
     7
370
    13
100
AcDbLine
 10
23.96061002071946
 20
81.85775629487111
 30
0.0
 11
292.7771043654077
 21
22.33701385098394
 31
0.0
  0
LINE
  5
CC
330
1F
100
AcDbEntity
  8
レイヤー 1
 62
     7
370
    13
100
AcDbLine
 10
300.0586581830318
 20
26.86679764976469
 30
0.0
 11
31.19961690910068
 21
86.3873678388776
 31
0.0
  0
LINE
  5
CD
330
1F
100
AcDbEntity
  8
レイヤー 1
 62
     7
370
    13
100
AcDbLine
 10
34.84022156313844
 20
95.9547425109649
 30
0.0
 11
35.60227668447573
 21
95.9971171854335
 31
0.0
  0
POINT
  5
CE
330
1F
100
AcDbEntity
  8
レイヤー 1
 62
     7
370
    13
100
AcDbPoint
 10
35.64465135894429
 20
95.87016541680205
 30
0.0
  0
LINE
  5
CF
330
1F
100
AcDbEntity
  8
レイヤー 1
 62
     7
370
    13
100
AcDbLine
 10
35.64465135894429
 20
95.87016541680205
 30
0.0
 11
35.64465135894429
 21
95.91236783649637
 31
0.0
  0
LINE
  5
D0
330
1F
100
AcDbEntity
  8
レイヤー 1
 62
     7
370
    13
100
AcDbLine
 10
35.64465135894429
 20
95.91236783649637
 30
0.0
 11
35.64465135894429
 21
95.9547425109649
 31
0.0
  0
LINE
  5
D1
330
1F
100
AcDbEntity
  8
レイヤー 1
 62
     7
370
    13
100
AcDbLine
 10
35.64465135894429
 20
95.9547425109649
 30
0.0
 11
35.60227668447573
 21
95.9971171854335
 31
0.0
  0
LINE
  5
D2
330
1F
100
AcDbEntity
  8
レイヤー 1
 62
     7
370
    13
100
AcDbLine
 10
35.64465135894429
 20
95.87016541680205
 30
0.0
 11
35.30599847274422
 21
93.54179763309594
 31
0.0
  0
LINE
  5
D3
330
1F
100
AcDbEntity
  8
レイヤー 1
 62
     7
370
    13
100
AcDbLine
 10
35.30599847274422
 20
93.54179763309594
 30
0.0
 11
35.30599847274422
 21
93.49942295862738
 31
0.0
  0
LINE
  5
D4
330
1F
100
AcDbEntity
  8
レイヤー 1
 62
     7
370
    13
100
AcDbLine
 10
35.26362379827566
 20
93.41484586446447
 30
0.0
 11
35.26362379827566
 21
93.45704828415879
 31
0.0
  0
LINE
  5
D5
330
1F
100
AcDbEntity
  8
レイヤー 1
 62
     7
370
    13
100
AcDbLine
 10
35.26362379827566
 20
93.45704828415879
 30
0.0
 11
35.30599847274422
 21
93.49942295862738
 31
0.0
  0
LINE
  5
D6
330
1F
100
AcDbEntity
  8
レイヤー 1
 62
     7
370
    13
100
AcDbLine
 10
35.30599847274422
 20
93.49942295862738
 30
0.0
 11
35.30599847274422
 21
93.54179763309594
 31
0.0
  0
LINE
  5
D7
330
1F
100
AcDbEntity
  8
レイヤー 1
 62
     7
370
    13
100
AcDbLine
 10
35.26362379827566
 20
93.41484586446447
 30
0.0
 11
35.17887444933851
 21
93.33009651552734
 31
0.0
  0
LINE
  5
D8
330
1F
100
AcDbEntity
  8
レイヤー 1
 62
     7
370
    13
100
AcDbLine
 10
35.17887444933851
 20
93.33009651552734
 30
0.0
 11
30.64926290533202
 21
87.31874940331488
 31
0.0
  0
LINE
  5
D9
330
1F
100
AcDbEntity
  8
レイヤー 1
 62
     7
370
    13
100
AcDbLine
 10
30.64926290533202
 20
87.31874940331488
 30
0.0
 11
30.56468581116914
 21
87.23400005437776
 31
0.0
  0
LINE
  5
DA
330
1F
100
AcDbEntity
  8
レイヤー 1
 62
     7
370
    13
100
AcDbLine
 10
30.31061001913196
 20
87.10704828574629
 30
0.0
 11
30.39518711329484
 21
87.10704828574629
 31
0.0
  0
LINE
  5
DB
330
1F
100
AcDbEntity
  8
レイヤー 1
 62
     7
370
    13
100
AcDbLine
 10
30.39518711329484
 20
87.10704828574629
 30
0.0
 11
30.43756178776343
 21
87.14942296021488
 31
0.0
  0
LINE
  5
DC
330
1F
100
AcDbEntity
  8
レイヤー 1
 62
     7
370
    13
100
AcDbLine
 10
30.43756178776343
 20
87.14942296021488
 30
0.0
 11
30.52231113670055
 21
87.19179763468344
 31
0.0
  0
LINE
  5
DD
330
1F
100
AcDbEntity
  8
レイヤー 1
 62
     7
370
    13
100
AcDbLine
 10
30.52231113670055
 20
87.19179763468344
 30
0.0
 11
30.56468581116914
 21
87.23400005437776
 31
0.0
  0
LINE
  5
DE
330
1F
100
AcDbEntity
  8
レイヤー 1
 62
     7
370
    13
100
AcDbLine
 10
30.31061001913196
 20
87.10704828574629
 30
0.0
 11
30.2682353446634
 21
87.10704828574629
 31
0.0
  0
LINE
  5
DF
330
1F
100
AcDbEntity
  8
レイヤー 1
 62
     7
370
    13
100
AcDbLine
 10
30.2682353446634
 20
87.10704828574629
 30
0.0
 11
17.90688823403845
 21
86.42974251334618
 31
0.0
  0
LINE
  5
E0
330
1F
100
AcDbEntity
  8
レイヤー 1
 62
     7
370
    13
100
AcDbLine
 10
17.90688823403845
 20
86.42974251334618
 30
0.0
 11
17.86468581434414
 21
86.42974251334618
 31
0.0
  0
LINE
  5
E1
330
1F
100
AcDbEntity
  8
レイヤー 1
 62
     7
370
    13
100
AcDbLine
 10
17.69518711646984
 20
86.55669428197763
 30
0.0
 11
17.69518711646984
 21
86.51431960750907
 31
0.0
  0
LINE
  5
E2
330
1F
100
AcDbEntity
  8
レイヤー 1
 62
     7
370
    13
100
AcDbLine
 10
17.69518711646984
 20
86.51431960750907
 30
0.0
 11
17.73756179093841
 21
86.47211718781475
 31
0.0
  0
LINE
  5
E3
330
1F
100
AcDbEntity
  8
レイヤー 1
 62
     7
370
    13
100
AcDbLine
 10
17.73756179093841
 20
86.47211718781475
 30
0.0
 11
17.77993646540699
 21
86.47211718781475
 31
0.0
  0
LINE
  5
E4
330
1F
100
AcDbEntity
  8
レイヤー 1
 62
     7
370
    13
100
AcDbLine
 10
17.77993646540699
 20
86.47211718781475
 30
0.0
 11
17.82231113987557
 21
86.42974251334618
 31
0.0
  0
LINE
  5
E5
330
1F
100
AcDbEntity
  8
レイヤー 1
 62
     7
370
    13
100
AcDbLine
 10
17.82231113987557
 20
86.42974251334618
 30
0.0
 11
17.86468581434414
 21
86.42974251334618
 31
0.0
  0
LINE
  5
E6
330
1F
100
AcDbEntity
  8
レイヤー 1
 62
     7
370
    13
100
AcDbLine
 10
17.69518711646984
 20
86.55669428197763
 30
0.0
 11
17.65298469677553
 21
86.64144363091478
 31
0.0
  0
LINE
  5
E7
330
1F
100
AcDbEntity
  8
レイヤー 1
 62
     7
370
    13
100
AcDbLine
 10
14.77426290930077
 20
92.22938850799002
 30
0.0
 11
17.65298469677553
 21
86.64144363091478
 31
0.0
  0
LINE
  5
E8
330
1F
100
AcDbEntity
  8
レイヤー 1
 62
     7
370
    13
100
AcDbLine
 10
14.77426290930077
 20
92.22938850799002
 30
0.0
 11
14.68968581513789
 21
92.35651253139574
 31
0.0
  0
LINE
  5
E9
330
1F
100
AcDbEntity
  8
レイヤー 1
 62
     7
370
    13
100
AcDbLine
 10
14.68968581513789
 20
92.44108962555862
 30
0.0
 11
14.68968581513789
 21
92.39871495109006
 31
0.0
  0
LINE
  5
EA
330
1F
100
AcDbEntity
  8
レイヤー 1
 62
     7
370
    13
100
AcDbLine
 10
14.68968581513789
 20
92.39871495109006
 30
0.0
 11
14.68968581513789
 21
92.35651253139574
 31
0.0
  0
LINE
  5
EB
330
1F
100
AcDbEntity
  8
レイヤー 1
 62
     7
370
    13
100
AcDbLine
 10
14.68968581513789
 20
92.44108962555862
 30
0.0
 11
14.68968581513789
 21
92.39871495109006
 31
0.0
  0
LINE
  5
EC
330
1F
100
AcDbEntity
  8
レイヤー 1
 62
     7
370
    13
100
AcDbLine
 10
14.68968581513789
 20
92.44108962555862
 30
0.0
 11
15.02833870133794
 21
94.76945740926473
 31
0.0
  0
LINE
  5
ED
330
1F
100
AcDbEntity
  8
レイヤー 1
 62
     7
370
    13
100
AcDbLine
 10
15.11291579550083
 20
94.89640917789617
 30
0.0
 11
15.07054112103226
 21
94.89640917789617
 31
0.0
  0
LINE
  5
EE
330
1F
100
AcDbEntity
  8
レイヤー 1
 62
     7
370
    13
100
AcDbLine
 10
15.07054112103226
 20
94.89640917789617
 30
0.0
 11
15.07054112103226
 21
94.85403450342758
 31
0.0
  0
LINE
  5
EF
330
1F
100
AcDbEntity
  8
レイヤー 1
 62
     7
370
    13
100
AcDbLine
 10
15.07054112103226
 20
94.85403450342758
 30
0.0
 11
15.02833870133794
 21
94.81183208373326
 31
0.0
  0
LINE
  5
F0
330
1F
100
AcDbEntity
  8
レイヤー 1
 62
     7
370
    13
100
AcDbLine
 10
15.02833870133794
 20
94.81183208373326
 30
0.0
 11
15.02833870133794
 21
94.76945740926473
 31
0.0
  0
LINE
  5
F1
330
1F
100
AcDbEntity
  8
レイヤー 1
 62
     7
370
    13
100
AcDbLine
 10
15.11291579550083
 20
94.89640917789617
 30
0.0
 11
15.87497091683809
 21
94.93878385236476
 31
0.0
  0
LINE
  5
F2
330
1F
100
AcDbEntity
  8
レイヤー 1
 62
     7
370
    13
100
AcDbLine
 10
15.87497091683809
 20
94.93878385236476
 30
0.0
 11
23.96061002071946
 21
95.36201383272768
 31
0.0
  0
LINE
  5
F3
330
1F
100
AcDbEntity
  8
レイヤー 1
 62
     7
370
    13
100
AcDbLine
 10
23.96061002071946
 20
95.36201383272768
 30
0.0
 11
23.62195713451941
 21
92.94906895485872
 31
0.0
  0
LINE
  5
F4
330
1F
100
AcDbEntity
  8
レイヤー 1
 62
     7
370
    13
100
AcDbLine
 10
23.62195713451941
 20
92.94906895485872
 30
0.0
 11
23.66433180898798
 21
92.94906895485872
 31
0.0
  0
POINT
  5
F5
330
1F
100
AcDbEntity
  8
レイヤー 1
 62
     7
370
    13
100
AcDbPoint
 10
23.66433180898798
 20
92.94906895485872
 30
0.0
  0
LINE
  5
F6
330
1F
100
AcDbEntity
  8
レイヤー 1
 62
     7
370
    13
100
AcDbLine
 10
23.66433180898798
 20
92.94906895485872
 30
0.0
 11
23.66433180898798
 21
92.90669428039013
 31
0.0
  0
LINE
  5
F7
330
1F
100
AcDbEntity
  8
レイヤー 1
 62
     7
370
    13
100
AcDbLine
 10
23.66433180898798
 20
92.90669428039013
 30
0.0
 11
23.66433180898798
 21
92.86431960592157
 31
0.0
  0
POINT
  5
F8
330
1F
100
AcDbEntity
  8
レイヤー 1
 62
     7
370
    13
100
AcDbPoint
 10
23.66433180898798
 20
92.86431960592157
 30
0.0
  0
LINE
  5
F9
330
1F
100
AcDbEntity
  8
レイヤー 1
 62
     7
370
    13
100
AcDbLine
 10
23.66433180898798
 20
92.86431960592157
 30
0.0
 11
23.66433180898798
 21
92.90669428039013
 31
0.0
  0
LINE
  5
FA
330
1F
100
AcDbEntity
  8
レイヤー 1
 62
     7
370
    13
100
AcDbLine
 10
23.66433180898798
 20
92.86431960592157
 30
0.0
 11
23.62195713451941
 21
92.86431960592157
 31
0.0
  0
LINE
  5
FB
330
1F
100
AcDbEntity
  8
レイヤー 1
 62
     7
370
    13
100
AcDbLine
 10
23.62195713451941
 20
92.86431960592157
 30
0.0
 11
23.57958246005083
 21
92.35651253139574
 31
0.0
  0
LINE
  5
FC
330
1F
100
AcDbEntity
  8
レイヤー 1
 62
     7
370
    13
100
AcDbLine
 10
23.57958246005083
 20
92.35651253139574
 30
0.0
 11
23.57958246005083
 21
91.89073562178996
 31
0.0
  0
LINE
  5
FD
330
1F
100
AcDbEntity
  8
レイヤー 1
 62
     7
370
    13
100
AcDbLine
 10
23.57958246005083
 20
91.89073562178996
 30
0.0
 11
23.66433180898798
 21
91.46733338665274
 31
0.0
  0
LINE
  5
FE
330
1F
100
AcDbEntity
  8
レイヤー 1
 62
     7
370
    13
100
AcDbLine
 10
23.66433180898798
 20
91.46733338665274
 30
0.0
 11
23.74890890315086
 21
91.08647808075838
 31
0.0
  0
LINE
  5
FF
330
1F
100
AcDbEntity
  8
レイヤー 1
 62
     7
370
    13
100
AcDbLine
 10
23.74890890315086
 20
91.08647808075838
 30
0.0
 11
23.9182353462509
 21
90.79002761425264
 31
0.0
  0
LINE
  5
100
330
1F
100
AcDbEntity
  8
レイヤー 1
 62
     7
370
    13
100
AcDbLine
 10
23.9182353462509
 20
90.79002761425264
 30
0.0
 11
24.12993646381949
 21
90.57849875145828
 31
0.0
  0
LINE
  5
101
330
1F
100
AcDbEntity
  8
レイヤー 1
 62
     7
370
    13
100
AcDbLine
 10
24.12993646381949
 20
90.57849875145828
 30
0.0
 11
24.38401225585666
 21
90.45137472805257
 31
0.0
  0
LINE
  5
102
330
1F
100
AcDbEntity
  8
レイヤー 1
 62
     7
370
    13
100
AcDbLine
 10
24.38401225585666
 20
90.45137472805257
 30
0.0
 11
24.63791579311957
 21
90.40900005358401
 31
0.0
  0
LINE
  5
103
330
1F
100
AcDbEntity
  8
レイヤー 1
 62
     7
370
    13
100
AcDbLine
 10
24.63791579311957
 20
90.40900005358401
 30
0.0
 11
24.89199158515676
 21
90.49374940252113
 31
0.0
  0
LINE
  5
104
330
1F
100
AcDbEntity
  8
レイヤー 1
 62
     7
370
    13
100
AcDbLine
 10
24.89199158515676
 20
90.49374940252113
 30
0.0
 11
25.18826979688824
 21
90.6207011711526
 31
0.0
  0
LINE
  5
105
330
1F
100
AcDbEntity
  8
レイヤー 1
 62
     7
370
    13
100
AcDbLine
 10
25.18826979688824
 20
90.6207011711526
 30
0.0
 11
25.44234558892542
 21
90.87477696318979
 31
0.0
  0
LINE
  5
106
330
1F
100
AcDbEntity
  8
レイヤー 1
 62
     7
370
    13
100
AcDbLine
 10
25.44234558892542
 20
90.87477696318979
 30
0.0
 11
25.69624912618833
 21
91.21342984938983
 31
0.0
  0
LINE
  5
107
330
1F
100
AcDbEntity
  8
レイヤー 1
 62
     7
370
    13
100
AcDbLine
 10
25.69624912618833
 20
91.21342984938983
 30
0.0
 11
25.9503249182255
 21
91.59445741005848
 31
0.0
  0
LINE
  5
108
330
1F
100
AcDbEntity
  8
レイヤー 1
 62
     7
370
    13
100
AcDbLine
 10
25.9503249182255
 20
91.59445741005848
 30
0.0
 11
26.11965136132554
 21
92.0176873904214
 31
0.0
  0
LINE
  5
109
330
1F
100
AcDbEntity
  8
レイヤー 1
 62
     7
370
    13
100
AcDbLine
 10
26.11965136132554
 20
92.0176873904214
 30
0.0
 11
26.28897780442557
 21
92.5256667197215
 31
0.0
  0
LINE
  5
10A
330
1F
100
AcDbEntity
  8
レイヤー 1
 62
     7
370
    13
100
AcDbLine
 10
26.28897780442557
 20
92.5256667197215
 30
0.0
 11
26.37355489858845
 21
92.99144362932728
 31
0.0
  0
LINE
  5
10B
330
1F
100
AcDbEntity
  8
レイヤー 1
 62
     7
370
    13
100
AcDbLine
 10
26.37355489858845
 20
92.99144362932728
 30
0.0
 11
26.33135247889413
 21
92.99144362932728
 31
0.0
  0
POINT
  5
10C
330
1F
100
AcDbEntity
  8
レイヤー 1
 62
     7
370
    13
100
AcDbPoint
 10
26.33135247889413
 20
92.99144362932728
 30
0.0
  0
LINE
  5
10D
330
1F
100
AcDbEntity
  8
レイヤー 1
 62
     7
370
    13
100
AcDbLine
 10
26.33135247889413
 20
92.99144362932728
 30
0.0
 11
26.33135247889413
 21
93.03381830379584
 31
0.0
  0
LINE
  5
10E
330
1F
100
AcDbEntity
  8
レイヤー 1
 62
     7
370
    13
100
AcDbLine
 10
26.33135247889413
 20
93.03381830379584
 30
0.0
 11
26.33135247889413
 21
93.07602072349016
 31
0.0
  0
LINE
  5
10F
330
1F
100
AcDbEntity
  8
レイヤー 1
 62
     7
370
    13
100
AcDbLine
 10
26.33135247889413
 20
93.11839539795872
 30
0.0
 11
26.33135247889413
 21
93.07602072349016
 31
0.0
  0
LINE
  5
110
330
1F
100
AcDbEntity
  8
レイヤー 1
 62
     7
370
    13
100
AcDbLine
 10
26.33135247889413
 20
93.11839539795872
 30
0.0
 11
26.41592957305703
 21
93.11839539795872
 31
0.0
  0
LINE
  5
111
330
1F
100
AcDbEntity
  8
レイヤー 1
 62
     7
370
    13
100
AcDbLine
 10
26.41592957305703
 20
93.11839539795872
 30
0.0
 11
26.75458245925708
 21
95.53151253060199
 31
0.0
  0
LINE
  5
112
330
1F
100
AcDbEntity
  8
レイヤー 1
 62
     7
370
    13
100
AcDbLine
 10
26.75458245925708
 20
95.53151253060199
 30
0.0
 11
34.84022156313844
 21
95.9547425109649
 31
0.0
  0
POINT
  5
113
330
1F
100
AcDbEntity
  8
レイヤー 1
 62
     7
370
    13
100
AcDbPoint
 10
30.64926290533202
 20
87.31874940331488
 30
0.0
  0
LINE
  5
114
330
1F
100
AcDbEntity
  8
レイヤー 1
 62
     7
370
    13
100
AcDbLine
 10
30.64926290533202
 20
87.31874940331488
 30
0.0
 11
30.69163757980058
 21
87.27637472884632
 31
0.0
  0
LINE
  5
115
330
1F
100
AcDbEntity
  8
レイヤー 1
 62
     7
370
    13
100
AcDbLine
 10
35.17887444933851
 20
93.33009651552734
 30
0.0
 11
35.22124912380707
 21
93.33009651552734
 31
0.0
  0
LINE
  5
116
330
1F
100
AcDbEntity
  8
レイヤー 1
 62
     7
370
    13
100
AcDbLine
 10
35.22124912380707
 20
93.33009651552734
 30
0.0
 11
35.22124912380707
 21
93.28772184105875
 31
0.0
  0
LINE
  5
117
330
1F
100
AcDbEntity
  8
レイヤー 1
 62
     7
370
    13
100
AcDbLine
 10
35.30599847274422
 20
93.54179763309594
 30
0.0
 11
35.34820089243854
 21
93.54179763309594
 31
0.0
  0
POINT
  5
118
330
1F
100
AcDbEntity
  8
レイヤー 1
 62
     7
370
    13
100
AcDbPoint
 10
35.34820089243854
 20
93.54179763309594
 30
0.0
  0
LINE
  5
119
330
1F
100
AcDbEntity
  8
レイヤー 1
 62
     7
370
    13
100
AcDbLine
 10
35.34820089243854
 20
93.54179763309594
 30
0.0
 11
35.30599847274422
 21
93.54179763309594
 31
0.0
  0
POINT
  5
11A
330
1F
100
AcDbEntity
  8
レイヤー 1
 62
     7
370
    13
100
AcDbPoint
 10
35.68685377863861
 20
95.87016541680205
 30
0.0
  0
LINE
  5
11B
330
1F
100
AcDbEntity
  8
レイヤー 1
 62
     7
370
    13
100
AcDbLine
 10
35.68685377863861
 20
95.87016541680205
 30
0.0
 11
35.64465135894429
 21
95.87016541680205
 31
0.0
  0
LINE
  5
11C
330
1F
100
AcDbEntity
  8
レイヤー 1
 62
     7
370
    13
100
AcDbLine
 10
35.17887444933851
 20
93.33009651552734
 30
0.0
 11
35.26362379827566
 21
93.33009651552734
 31
0.0
  0
LINE
  5
11D
330
1F
100
AcDbEntity
  8
レイヤー 1
 62
     7
370
    13
100
AcDbLine
 10
35.72922845310717
 20
95.9547425109649
 30
0.0
 11
35.68685377863861
 21
95.9547425109649
 31
0.0
  0
LINE
  5
11E
330
1F
100
AcDbEntity
  8
レイヤー 1
 62
     7
370
    13
100
AcDbLine
 10
34.92497091207559
 20
96.03931960512782
 30
0.0
 11
34.88259623760703
 21
96.03931960512782
 31
0.0
  0
LINE
  5
11F
330
1F
100
AcDbEntity
  8
レイヤー 1
 62
     7
370
    13
100
AcDbLine
 10
34.88259623760703
 20
96.03931960512782
 30
0.0
 11
34.84022156313844
 21
95.9971171854335
 31
0.0
  0
LINE
  5
120
330
1F
100
AcDbEntity
  8
レイヤー 1
 62
     7
370
    13
100
AcDbLine
 10
34.84022156313844
 20
95.9971171854335
 30
0.0
 11
34.84022156313844
 21
95.9547425109649
 31
0.0
  0
LINE
  5
121
330
1F
100
AcDbEntity
  8
レイヤー 1
 62
     7
370
    13
100
AcDbLine
 10
26.83933180819423
 20
95.61608962476484
 30
0.0
 11
26.79695713372566
 21
95.61608962476484
 31
0.0
  0
LINE
  5
122
330
1F
100
AcDbEntity
  8
レイヤー 1
 62
     7
370
    13
100
AcDbLine
 10
26.79695713372566
 20
95.61608962476484
 30
0.0
 11
26.75458245925708
 21
95.5737149502963
 31
0.0
  0
LINE
  5
123
330
1F
100
AcDbEntity
  8
レイヤー 1
 62
     7
370
    13
100
AcDbLine
 10
26.75458245925708
 20
95.5737149502963
 30
0.0
 11
26.75458245925708
 21
95.53151253060199
 31
0.0
  0
LINE
  5
124
330
1F
100
AcDbEntity
  8
レイヤー 1
 62
     7
370
    13
100
AcDbLine
 10
34.92497091207559
 20
96.03931960512782
 30
0.0
 11
34.92497091207559
 21
95.9547425109649
 31
0.0
  0
LINE
  5
125
330
1F
100
AcDbEntity
  8
レイヤー 1
 62
     7
370
    13
100
AcDbLine
 10
34.92497091207559
 20
96.03931960512782
 30
0.0
 11
35.17887444933851
 21
95.9547425109649
 31
0.0
  0
LINE
  5
126
330
1F
100
AcDbEntity
  8
レイヤー 1
 62
     7
370
    13
100
AcDbLine
 10
30.56468581116914
 20
87.23400005437776
 30
0.0
 11
30.64926290533202
 21
87.23400005437776
 31
0.0
  0
LINE
  5
127
330
1F
100
AcDbEntity
  8
レイヤー 1
 62
     7
370
    13
100
AcDbLine
 10
30.31061001913196
 20
87.10704828574629
 30
0.0
 11
30.39518711329484
 21
87.06484586605197
 31
0.0
  0
LINE
  5
128
330
1F
100
AcDbEntity
  8
レイヤー 1
 62
     7
370
    13
100
AcDbLine
 10
30.39518711329484
 20
87.06484586605197
 30
0.0
 11
30.47993646223199
 21
87.10704828574629
 31
0.0
  0
LINE
  5
129
330
1F
100
AcDbEntity
  8
レイヤー 1
 62
     7
370
    13
100
AcDbLine
 10
30.47993646223199
 20
87.10704828574629
 30
0.0
 11
30.52231113670055
 21
87.10704828574629
 31
0.0
  0
LINE
  5
12A
330
1F
100
AcDbEntity
  8
レイヤー 1
 62
     7
370
    13
100
AcDbLine
 10
30.52231113670055
 20
87.10704828574629
 30
0.0
 11
30.56468581116914
 21
87.14942296021488
 31
0.0
  0
LINE
  5
12B
330
1F
100
AcDbEntity
  8
レイヤー 1
 62
     7
370
    13
100
AcDbLine
 10
30.2682353446634
 20
87.10704828574629
 30
0.0
 11
30.35298469360055
 21
87.06484586605197
 31
0.0
  0
LINE
  5
12C
330
1F
100
AcDbEntity
  8
レイヤー 1
 62
     7
370
    13
100
AcDbLine
 10
30.35298469360055
 20
87.06484586605197
 30
0.0
 11
30.39518711329484
 21
87.06484586605197
 31
0.0
  0
LINE
  5
12D
330
1F
100
AcDbEntity
  8
レイヤー 1
 62
     7
370
    13
100
AcDbLine
 10
30.35298469360055
 20
86.98009651711484
 30
0.0
 11
30.35298469360055
 21
87.06484586605197
 31
0.0
  0
LINE
  5
12E
330
1F
100
AcDbEntity
  8
レイヤー 1
 62
     7
370
    13
100
AcDbLine
 10
30.2682353446634
 20
87.10704828574629
 30
0.0
 11
30.2682353446634
 21
87.06484586605197
 31
0.0
  0
LINE
  5
12F
330
1F
100
AcDbEntity
  8
レイヤー 1
 62
     7
370
    13
100
AcDbLine
 10
30.2682353446634
 20
87.06484586605197
 30
0.0
 11
30.31061001913196
 21
87.0224711915834
 31
0.0
  0
LINE
  5
130
330
1F
100
AcDbEntity
  8
レイヤー 1
 62
     7
370
    13
100
AcDbLine
 10
30.31061001913196
 20
87.0224711915834
 30
0.0
 11
30.31061001913196
 21
86.98009651711484
 31
0.0
  0
LINE
  5
131
330
1F
100
AcDbEntity
  8
レイヤー 1
 62
     7
370
    13
100
AcDbLine
 10
17.90688823403845
 20
86.42974251334618
 30
0.0
 11
17.90688823403845
 21
86.3873678388776
 31
0.0
  0
LINE
  5
132
330
1F
100
AcDbEntity
  8
レイヤー 1
 62
     7
370
    13
100
AcDbLine
 10
17.90688823403845
 20
86.3873678388776
 30
0.0
 11
17.94926290850702
 21
86.3873678388776
 31
0.0
  0
LINE
  5
133
330
1F
100
AcDbEntity
  8
レイヤー 1
 62
     7
370
    13
100
AcDbLine
 10
17.94926290850702
 20
86.3873678388776
 30
0.0
 11
17.94926290850702
 21
86.3451654191833
 31
0.0
  0
LINE
  5
134
330
1F
100
AcDbEntity
  8
レイヤー 1
 62
     7
370
    13
100
AcDbLine
 10
30.47993646223199
 20
87.06484586605197
 30
0.0
 11
30.35298469360055
 21
87.06484586605197
 31
0.0
  0
LINE
  5
135
330
1F
100
AcDbEntity
  8
レイヤー 1
 62
     7
370
    13
100
AcDbLine
 10
29.92958245846333
 20
86.64144363091478
 30
0.0
 11
29.97195713293189
 21
86.64144363091478
 31
0.0
  0
LINE
  5
136
330
1F
100
AcDbEntity
  8
レイヤー 1
 62
     7
370
    13
100
AcDbLine
 10
23.66433180898798
 20
92.82211718622725
 30
0.0
 11
23.62195713451941
 21
92.86431960592157
 31
0.0
  0
LINE
  5
137
330
1F
100
AcDbEntity
  8
レイヤー 1
 62
     7
370
    13
100
AcDbLine
 10
23.833658252088
 20
91.1286805004527
 30
0.0
 11
23.87586067178232
 21
91.04410340628979
 31
0.0
  0
LINE
  5
138
330
1F
100
AcDbEntity
  8
レイヤー 1
 62
     7
370
    13
100
AcDbLine
 10
23.87586067178232
 20
91.04410340628979
 30
0.0
 11
23.9182353462509
 21
90.91715163765835
 31
0.0
  0
LINE
  5
139
330
1F
100
AcDbEntity
  8
レイヤー 1
 62
     7
370
    13
100
AcDbLine
 10
23.9182353462509
 20
90.91715163765835
 30
0.0
 11
23.96061002071946
 21
90.8324022887212
 31
0.0
  0
LINE
  5
13A
330
1F
100
AcDbEntity
  8
レイヤー 1
 62
     7
370
    13
100
AcDbLine
 10
23.96061002071946
 20
90.8324022887212
 30
0.0
 11
24.00298469518803
 21
90.79002761425264
 31
0.0
  0
LINE
  5
13B
330
1F
100
AcDbEntity
  8
レイヤー 1
 62
     7
370
    13
100
AcDbLine
 10
24.00298469518803
 20
90.79002761425264
 30
0.0
 11
24.08756178935091
 21
90.70545052008976
 31
0.0
  0
LINE
  5
13C
330
1F
100
AcDbEntity
  8
レイヤー 1
 62
     7
370
    13
100
AcDbLine
 10
24.08756178935091
 20
90.70545052008976
 30
0.0
 11
24.12993646381949
 21
90.6207011711526
 31
0.0
  0
LINE
  5
13D
330
1F
100
AcDbEntity
  8
レイヤー 1
 62
     7
370
    13
100
AcDbLine
 10
24.12993646381949
 20
90.6207011711526
 30
0.0
 11
24.21468581275664
 21
90.57849875145828
 31
0.0
  0
LINE
  5
13E
330
1F
100
AcDbEntity
  8
レイヤー 1
 62
     7
370
    13
100
AcDbLine
 10
24.21468581275664
 20
90.57849875145828
 30
0.0
 11
24.29926290691952
 21
90.49374940252113
 31
0.0
  0
LINE
  5
13F
330
1F
100
AcDbEntity
  8
レイヤー 1
 62
     7
370
    13
100
AcDbLine
 10
24.29926290691952
 20
90.49374940252113
 30
0.0
 11
24.38401225585666
 21
90.45137472805257
 31
0.0
  0
LINE
  5
140
330
1F
100
AcDbEntity
  8
レイヤー 1
 62
     7
370
    13
100
AcDbLine
 10
24.38401225585666
 20
90.45137472805257
 30
0.0
 11
24.46858935001956
 21
90.40900005358401
 31
0.0
  0
LINE
  5
141
330
1F
100
AcDbEntity
  8
レイヤー 1
 62
     7
370
    13
100
AcDbLine
 10
23.66433180898798
 20
92.82211718622725
 30
0.0
 11
23.66433180898798
 21
92.35651253139574
 31
0.0
  0
LINE
  5
142
330
1F
100
AcDbEntity
  8
レイヤー 1
 62
     7
370
    13
100
AcDbLine
 10
23.66433180898798
 20
92.35651253139574
 30
0.0
 11
23.66433180898798
 21
91.89073562178996
 31
0.0
  0
LINE
  5
143
330
1F
100
AcDbEntity
  8
レイヤー 1
 62
     7
370
    13
100
AcDbLine
 10
23.66433180898798
 20
91.89073562178996
 30
0.0
 11
23.70653422868229
 21
91.46733338665274
 31
0.0
  0
LINE
  5
144
330
1F
100
AcDbEntity
  8
レイヤー 1
 62
     7
370
    13
100
AcDbLine
 10
23.70653422868229
 20
91.46733338665274
 30
0.0
 11
23.833658252088
 21
91.08647808075838
 31
0.0
  0
LINE
  5
145
330
1F
100
AcDbEntity
  8
レイヤー 1
 62
     7
370
    13
100
AcDbLine
 10
23.833658252088
 20
91.08647808075838
 30
0.0
 11
24.00298469518803
 21
90.79002761425264
 31
0.0
  0
LINE
  5
146
330
1F
100
AcDbEntity
  8
レイヤー 1
 62
     7
370
    13
100
AcDbLine
 10
24.00298469518803
 20
90.79002761425264
 30
0.0
 11
24.21468581275664
 21
90.57849875145828
 31
0.0
  0
LINE
  5
147
330
1F
100
AcDbEntity
  8
レイヤー 1
 62
     7
370
    13
100
AcDbLine
 10
24.21468581275664
 20
90.57849875145828
 30
0.0
 11
24.42621467555098
 21
90.45137472805257
 31
0.0
  0
LINE
  5
148
330
1F
100
AcDbEntity
  8
レイヤー 1
 62
     7
370
    13
100
AcDbLine
 10
24.42621467555098
 20
90.45137472805257
 30
0.0
 11
24.68029046758815
 21
90.40900005358401
 31
0.0
  0
LINE
  5
149
330
1F
100
AcDbEntity
  8
レイヤー 1
 62
     7
370
    13
100
AcDbLine
 10
24.68029046758815
 20
90.40900005358401
 30
0.0
 11
24.76486756175103
 21
90.40900005358401
 31
0.0
  0
LINE
  5
14A
330
1F
100
AcDbEntity
  8
レイヤー 1
 62
     7
370
    13
100
AcDbLine
 10
23.66433180898798
 20
92.82211718622725
 30
0.0
 11
23.70653422868229
 21
92.86431960592157
 31
0.0
  0
LINE
  5
14B
330
1F
100
AcDbEntity
  8
レイヤー 1
 62
     7
370
    13
100
AcDbLine
 10
23.70653422868229
 20
92.86431960592157
 30
0.0
 11
23.74890890315086
 21
92.86431960592157
 31
0.0
  0
LINE
  5
14C
330
1F
100
AcDbEntity
  8
レイヤー 1
 62
     7
370
    13
100
AcDbLine
 10
23.74890890315086
 20
92.86431960592157
 30
0.0
 11
23.74890890315086
 21
92.90669428039013
 31
0.0
  0
POINT
  5
14D
330
1F
100
AcDbEntity
  8
レイヤー 1
 62
     7
370
    13
100
AcDbPoint
 10
23.74890890315086
 20
92.90669428039013
 30
0.0
  0
LINE
  5
14E
330
1F
100
AcDbEntity
  8
レイヤー 1
 62
     7
370
    13
100
AcDbLine
 10
23.74890890315086
 20
92.90669428039013
 30
0.0
 11
23.74890890315086
 21
92.94906895485872
 31
0.0
  0
LINE
  5
14F
330
1F
100
AcDbEntity
  8
レイヤー 1
 62
     7
370
    13
100
AcDbLine
 10
24.04518711488234
 20
95.44676318166486
 30
0.0
 11
23.70653422868229
 21
92.94906895485872
 31
0.0
  0
LINE
  5
150
330
1F
100
AcDbEntity
  8
レイヤー 1
 62
     7
370
    13
100
AcDbLine
 10
26.79695713372566
 20
95.61608962476484
 30
0.0
 11
24.04518711488234
 21
95.44676318166486
 31
0.0
  0
LINE
  5
151
330
1F
100
AcDbEntity
  8
レイヤー 1
 62
     7
370
    13
100
AcDbLine
 10
26.79695713372566
 20
95.61608962476484
 30
0.0
 11
26.79695713372566
 21
95.5737149502963
 31
0.0
  0
LINE
  5
152
330
1F
100
AcDbEntity
  8
レイヤー 1
 62
     7
370
    13
100
AcDbLine
 10
24.59554111865101
 20
90.40900005358401
 30
0.0
 11
24.63791579311957
 21
90.40900005358401
 31
0.0
  0
LINE
  5
153
330
1F
100
AcDbEntity
  8
レイヤー 1
 62
     7
370
    13
100
AcDbLine
 10
26.83933180819423
 20
95.61608962476484
 30
0.0
 11
26.79695713372566
 21
95.61608962476484
 31
0.0
  0
LINE
  5
154
330
1F
100
AcDbEntity
  8
レイヤー 1
 62
     7
370
    13
100
AcDbLine
 10
23.74890890315086
 20
92.86431960592157
 30
0.0
 11
23.66433180898798
 21
92.90669428039013
 31
0.0
  0
LINE
  5
155
330
1F
100
AcDbEntity
  8
レイヤー 1
 62
     7
370
    13
100
AcDbLine
 10
23.70653422868229
 20
92.86431960592157
 30
0.0
 11
23.66433180898798
 21
92.86431960592157
 31
0.0
  0
LINE
  5
156
330
1F
100
AcDbEntity
  8
レイヤー 1
 62
     7
370
    13
100
AcDbLine
 10
23.74890890315086
 20
92.90669428039013
 30
0.0
 11
23.66433180898798
 21
92.90669428039013
 31
0.0
  0
POINT
  5
157
330
1F
100
AcDbEntity
  8
レイヤー 1
 62
     7
370
    13
100
AcDbPoint
 10
24.04518711488234
 20
95.44676318166486
 30
0.0
  0
LINE
  5
158
330
1F
100
AcDbEntity
  8
レイヤー 1
 62
     7
370
    13
100
AcDbLine
 10
24.04518711488234
 20
95.44676318166486
 30
0.0
 11
24.00298469518803
 21
95.44676318166486
 31
0.0
  0
LINE
  5
159
330
1F
100
AcDbEntity
  8
レイヤー 1
 62
     7
370
    13
100
AcDbLine
 10
24.00298469518803
 20
95.44676318166486
 30
0.0
 11
24.00298469518803
 21
95.40438850719627
 31
0.0
  0
LINE
  5
15A
330
1F
100
AcDbEntity
  8
レイヤー 1
 62
     7
370
    13
100
AcDbLine
 10
24.00298469518803
 20
95.40438850719627
 30
0.0
 11
23.96061002071946
 21
95.40438850719627
 31
0.0
  0
LINE
  5
15B
330
1F
100
AcDbEntity
  8
レイヤー 1
 62
     7
370
    13
100
AcDbLine
 10
23.96061002071946
 20
95.40438850719627
 30
0.0
 11
23.96061002071946
 21
95.36201383272768
 31
0.0
  0
POINT
  5
15C
330
1F
100
AcDbEntity
  8
レイヤー 1
 62
     7
370
    13
100
AcDbPoint
 10
15.95954801100098
 20
95.02336094652762
 30
0.0
  0
LINE
  5
15D
330
1F
100
AcDbEntity
  8
レイヤー 1
 62
     7
370
    13
100
AcDbLine
 10
15.95954801100098
 20
95.02336094652762
 30
0.0
 11
15.91734559130667
 21
94.98098627205908
 31
0.0
  0
LINE
  5
15E
330
1F
100
AcDbEntity
  8
レイヤー 1
 62
     7
370
    13
100
AcDbLine
 10
15.91734559130667
 20
94.98098627205908
 30
0.0
 11
15.87497091683809
 21
94.98098627205908
 31
0.0
  0
LINE
  5
15F
330
1F
100
AcDbEntity
  8
レイヤー 1
 62
     7
370
    13
100
AcDbLine
 10
15.87497091683809
 20
94.98098627205908
 30
0.0
 11
15.87497091683809
 21
94.93878385236476
 31
0.0
  0
LINE
  5
160
330
1F
100
AcDbEntity
  8
レイヤー 1
 62
     7
370
    13
100
AcDbLine
 10
17.90688823403845
 20
86.42974251334618
 30
0.0
 11
17.86468581434414
 21
86.42974251334618
 31
0.0
  0
LINE
  5
161
330
1F
100
AcDbEntity
  8
レイヤー 1
 62
     7
370
    13
100
AcDbLine
 10
17.69518711646984
 20
86.55669428197763
 30
0.0
 11
17.69518711646984
 21
86.51431960750907
 31
0.0
  0
LINE
  5
162
330
1F
100
AcDbEntity
  8
レイヤー 1
 62
     7
370
    13
100
AcDbLine
 10
17.65298469677553
 20
86.64144363091478
 30
0.0
 11
17.61061002230696
 21
86.64144363091478
 31
0.0
  0
LINE
  5
163
330
1F
100
AcDbEntity
  8
レイヤー 1
 62
     7
370
    13
100
AcDbLine
 10
17.61061002230696
 20
86.64144363091478
 30
0.0
 11
17.61061002230696
 21
86.59906895644622
 31
0.0
  0
LINE
  5
164
330
1F
100
AcDbEntity
  8
レイヤー 1
 62
     7
370
    13
100
AcDbLine
 10
17.61061002230696
 20
86.59906895644622
 30
0.0
 11
17.65298469677553
 21
86.55669428197763
 31
0.0
  0
LINE
  5
165
330
1F
100
AcDbEntity
  8
レイヤー 1
 62
     7
370
    13
100
AcDbLine
 10
14.77426290930077
 20
92.22938850799002
 30
0.0
 11
14.7318882348322
 21
92.22938850799002
 31
0.0
  0
LINE
  5
166
330
1F
100
AcDbEntity
  8
レイヤー 1
 62
     7
370
    13
100
AcDbLine
 10
14.7318882348322
 20
92.22938850799002
 30
0.0
 11
14.7318882348322
 21
92.18701383352143
 31
0.0
  0
POINT
  5
167
330
1F
100
AcDbEntity
  8
レイヤー 1
 62
     7
370
    13
100
AcDbPoint
 10
15.02833870133794
 20
94.76945740926473
 30
0.0
  0
POINT
  5
168
330
1F
100
AcDbEntity
  8
レイヤー 1
 62
     7
370
    13
100
AcDbPoint
 10
14.68968581513789
 20
92.44108962555862
 30
0.0
  0
LINE
  5
169
330
1F
100
AcDbEntity
  8
レイヤー 1
 62
     7
370
    13
100
AcDbLine
 10
69.97692267197581
 20
81.180450522471
 30
0.0
 11
69.93454799750722
 21
81.180450522471
 31
0.0
  0
LINE
  5
16A
330
1F
100
AcDbEntity
  8
レイヤー 1
 62
     7
370
    13
100
AcDbLine
 10
69.93454799750722
 20
81.180450522471
 30
0.0
 11
69.89234557781293
 21
81.180450522471
 31
0.0
  0
LINE
  5
16B
330
1F
100
AcDbEntity
  8
レイヤー 1
 62
     7
370
    13
100
AcDbLine
 10
69.89234557781293
 20
81.180450522471
 30
0.0
 11
69.89234557781293
 21
81.13807584800242
 31
0.0
  0
LINE
  5
16C
330
1F
100
AcDbEntity
  8
レイヤー 1
 62
     7
370
    13
100
AcDbLine
 10
69.89234557781293
 20
81.13807584800242
 30
0.0
 11
69.89234557781293
 21
80.24906895803369
 31
0.0
  0
LINE
  5
16D
330
1F
100
AcDbEntity
  8
レイヤー 1
 62
     7
370
    13
100
AcDbLine
 10
69.89234557781293
 20
80.24906895803369
 30
0.0
 11
69.89234557781293
 21
80.20669428356513
 31
0.0
  0
POINT
  5
16E
330
1F
100
AcDbEntity
  8
レイヤー 1
 62
     7
370
    13
100
AcDbPoint
 10
71.16220777367602
 20
80.92637473043382
 30
0.0
  0
LINE
  5
16F
330
1F
100
AcDbEntity
  8
レイヤー 1
 62
     7
370
    13
100
AcDbLine
 10
71.16220777367602
 20
80.92637473043382
 30
0.0
 11
71.1200053539817
 21
80.92637473043382
 31
0.0
  0
LINE
  5
170
330
1F
100
AcDbEntity
  8
レイヤー 1
 62
     7
370
    13
100
AcDbLine
 10
71.1200053539817
 20
80.92637473043382
 30
0.0
 11
69.97692267197581
 21
81.180450522471
 31
0.0
  0
LINE
  5
171
330
1F
100
AcDbEntity
  8
レイヤー 1
 62
     7
370
    13
100
AcDbLine
 10
30.52231113670055
 20
86.98009651711484
 30
0.0
 11
303.3184075311751
 21
26.57034718325895
 31
0.0
  0
LINE
  5
172
330
1F
100
AcDbEntity
  8
レイヤー 1
 62
     7
370
    13
100
AcDbLine
 10
35.30599847274422
 20
93.2453471665902
 30
0.0
 11
30.52231113670055
 21
86.98009651711484
 31
0.0
  0
LINE
  5
173
330
1F
100
AcDbEntity
  8
レイヤー 1
 62
     7
370
    13
100
AcDbLine
 10
35.30599847274422
 20
93.2453471665902
 30
0.0
 11
308.1019226124446
 21
32.83577008750856
 31
0.0
  0
LINE
  5
174
330
1F
100
AcDbEntity
  8
レイヤー 1
 62
     7
370
    13
100
AcDbLine
 10
308.1019226124446
 20
32.83577008750856
 30
0.0
 11
303.3184075311751
 21
26.57034718325895
 31
0.0
  0
LINE
  5
175
330
1F
100
AcDbEntity
  8
レイヤー 1
 62
     7
370
    13
100
AcDbLine
 10
266.5730190855004
 20
37.70403451771509
 30
0.0
 11
267.7161017675063
 21
37.45013098045217
 31
0.0
  0
LINE
  5
176
330
1F
100
AcDbEntity
  8
レイヤー 1
 62
     7
370
    13
100
AcDbLine
 10
266.5730190855004
 20
37.70403451771509
 30
0.0
 11
266.5306444110319
 21
37.70403451771509
 31
0.0
  0
LINE
  5
177
330
1F
100
AcDbEntity
  8
レイヤー 1
 62
     7
370
    13
100
AcDbLine
 10
266.5306444110319
 20
37.70403451771509
 30
0.0
 11
266.4882697365632
 21
37.70403451771509
 31
0.0
  0
LINE
  5
178
330
1F
100
AcDbEntity
  8
レイヤー 1
 62
     7
370
    13
100
AcDbLine
 10
266.4882697365632
 20
37.70403451771509
 30
0.0
 11
266.4882697365632
 21
37.6618320980208
 31
0.0
  0
LINE
  5
179
330
1F
100
AcDbEntity
  8
レイヤー 1
 62
     7
370
    13
100
AcDbLine
 10
266.4882697365632
 20
37.6618320980208
 30
0.0
 11
266.4458950620947
 21
37.6618320980208
 31
0.0
  0
LINE
  5
17A
330
1F
100
AcDbEntity
  8
レイヤー 1
 62
     7
370
    13
100
AcDbLine
 10
266.4458950620947
 20
37.6618320980208
 30
0.0
 11
266.4458950620947
 21
37.61945742355221
 31
0.0
  0
LINE
  5
17B
330
1F
100
AcDbEntity
  8
レイヤー 1
 62
     7
370
    13
100
AcDbLine
 10
266.4458950620947
 20
37.61945742355221
 30
0.0
 11
266.4035203876261
 21
37.61945742355221
 31
0.0
  0
LINE
  5
17C
330
1F
100
AcDbEntity
  8
レイヤー 1
 62
     7
370
    13
100
AcDbLine
 10
266.4035203876261
 20
36.68807585911492
 30
0.0
 11
266.4035203876261
 21
37.61945742355221
 31
0.0
  0
LINE
  5
17D
330
1F
100
AcDbEntity
  8
レイヤー 1
 62
     7
370
    13
100
AcDbLine
 10
35.30599847274422
 20
93.2453471665902
 30
0.0
 11
35.26362379827566
 21
93.33009651552734
 31
0.0
  0
LINE
  5
17E
330
1F
100
AcDbEntity
  8
レイヤー 1
 62
     7
370
    13
100
AcDbLine
 10
30.52231113670055
 20
87.06484586605197
 30
0.0
 11
30.52231113670055
 21
86.98009651711484
 31
0.0
  0
LINE
  5
17F
330
1F
100
AcDbEntity
  8
レイヤー 1
 62
     7
370
    13
100
AcDbLine
 10
35.26362379827566
 20
93.33009651552734
 30
0.0
 11
30.52231113670055
 21
87.06484586605197
 31
0.0
  0
LINE
  5
180
330
1F
100
AcDbEntity
  8
レイヤー 1
 62
     7
370
    13
100
AcDbLine
 10
35.30599847274422
 20
93.2453471665902
 30
0.0
 11
35.34820089243854
 21
93.33009651552734
 31
0.0
  0
LINE
  5
181
330
1F
100
AcDbEntity
  8
レイヤー 1
 62
     7
370
    13
100
AcDbLine
 10
35.34820089243854
 20
93.33009651552734
 30
0.0
 11
35.3905755669071
 21
93.3724711899959
 31
0.0
  0
LINE
  5
182
330
1F
100
AcDbEntity
  8
レイヤー 1
 62
     7
370
    13
100
AcDbLine
 10
35.3905755669071
 20
93.3724711899959
 30
0.0
 11
35.3905755669071
 21
93.45704828415879
 31
0.0
  0
LINE
  5
183
330
1F
100
AcDbEntity
  8
レイヤー 1
 62
     7
370
    13
100
AcDbLine
 10
35.3905755669071
 20
93.45704828415879
 30
0.0
 11
35.43295024137569
 21
93.54179763309594
 31
0.0
  0
LINE
  5
184
330
1F
100
AcDbEntity
  8
レイヤー 1
 62
     7
370
    13
100
AcDbLine
 10
35.43295024137569
 20
93.54179763309594
 30
0.0
 11
308.1866719613818
 21
33.13204829924004
 31
0.0
  0
LINE
  5
185
330
1F
100
AcDbEntity
  8
レイヤー 1
 62
     7
370
    13
100
AcDbLine
 10
308.1019226124446
 20
32.83577008750856
 30
0.0
 11
308.1442972869131
 21
32.92034718167145
 31
0.0
  0
LINE
  5
186
330
1F
100
AcDbEntity
  8
レイヤー 1
 62
     7
370
    13
100
AcDbLine
 10
308.1442972869131
 20
32.92034718167145
 30
0.0
 11
308.1442972869131
 21
32.96272185614001
 31
0.0
  0
LINE
  5
187
330
1F
100
AcDbEntity
  8
レイヤー 1
 62
     7
370
    13
100
AcDbLine
 10
308.1442972869131
 20
32.96272185614001
 30
0.0
 11
308.1866719613818
 21
33.04747120507716
 31
0.0
  0
LINE
  5
188
330
1F
100
AcDbEntity
  8
レイヤー 1
 62
     7
370
    13
100
AcDbLine
 10
308.1866719613818
 20
33.04747120507716
 30
0.0
 11
308.1866719613818
 21
33.13204829924004
 31
0.0
  0
LINE
  5
189
330
1F
100
AcDbEntity
  8
レイヤー 1
 62
     7
370
    13
100
AcDbLine
 10
35.26362379827566
 20
93.33009651552734
 30
0.0
 11
35.30599847274422
 21
93.41484586446447
 31
0.0
  0
LINE
  5
18A
330
1F
100
AcDbEntity
  8
レイヤー 1
 62
     7
370
    13
100
AcDbLine
 10
35.30599847274422
 20
93.41484586446447
 30
0.0
 11
35.34820089243854
 21
93.45704828415879
 31
0.0
  0
LINE
  5
18B
330
1F
100
AcDbEntity
  8
レイヤー 1
 62
     7
370
    13
100
AcDbLine
 10
35.34820089243854
 20
93.45704828415879
 30
0.0
 11
35.34820089243854
 21
93.54179763309594
 31
0.0
  0
LINE
  5
18C
330
1F
100
AcDbEntity
  8
レイヤー 1
 62
     7
370
    13
100
AcDbLine
 10
35.34820089243854
 20
93.54179763309594
 30
0.0
 11
35.43295024137569
 21
93.54179763309594
 31
0.0
  0
LINE
  5
18D
330
1F
100
AcDbEntity
  8
レイヤー 1
 62
     7
370
    13
100
AcDbLine
 10
35.77160312757573
 20
96.12406895406494
 30
0.0
 11
35.43295024137569
 21
93.54179763309594
 31
0.0
  0
LINE
  5
18E
330
1F
100
AcDbEntity
  8
レイヤー 1
 62
     7
370
    13
100
AcDbLine
 10
308.5676995220504
 20
35.67211720051475
 30
0.0
 11
35.77160312757573
 21
96.12406895406494
 31
0.0
  0
LINE
  5
18F
330
1F
100
AcDbEntity
  8
レイヤー 1
 62
     7
370
    13
100
AcDbLine
 10
308.5676995220504
 20
35.67211720051475
 30
0.0
 11
308.1866719613818
 21
33.13204829924004
 31
0.0
  0
LINE
  5
190
330
1F
100
AcDbEntity
  8
レイヤー 1
 62
     7
370
    13
100
AcDbLine
 10
35.72922845310717
 20
96.0816942795964
 30
0.0
 11
35.77160312757573
 21
96.12406895406494
 31
0.0
  0
LINE
  5
191
330
1F
100
AcDbEntity
  8
レイヤー 1
 62
     7
370
    13
100
AcDbLine
 10
35.72922845310717
 20
96.0816942795964
 30
0.0
 11
35.34820089243854
 21
93.54179763309594
 31
0.0
  0
POINT
  5
192
330
1F
100
AcDbEntity
  8
レイヤー 1
 62
     7
370
    13
100
AcDbPoint
 10
35.77160312757573
 20
96.12406895406494
 30
0.0
  0
LINE
  5
193
330
1F
100
AcDbEntity
  8
レイヤー 1
 62
     7
370
    13
100
AcDbLine
 10
35.77160312757573
 20
96.12406895406494
 30
0.0
 11
35.77160312757573
 21
96.16644362853353
 31
0.0
  0
LINE
  5
194
330
1F
100
AcDbEntity
  8
レイヤー 1
 62
     7
370
    13
100
AcDbLine
 10
35.77160312757573
 20
96.16644362853353
 30
0.0
 11
35.77160312757573
 21
96.20881830300212
 31
0.0
  0
LINE
  5
195
330
1F
100
AcDbEntity
  8
レイヤー 1
 62
     7
370
    13
100
AcDbLine
 10
35.77160312757573
 20
96.20881830300212
 30
0.0
 11
35.72922845310717
 21
96.20881830300212
 31
0.0
  0
LINE
  5
196
330
1F
100
AcDbEntity
  8
レイヤー 1
 62
     7
370
    13
100
AcDbLine
 10
35.72922845310717
 20
96.0816942795964
 30
0.0
 11
35.72922845310717
 21
96.20881830300212
 31
0.0
  0
POINT
  5
197
330
1F
100
AcDbEntity
  8
レイヤー 1
 62
     7
370
    13
100
AcDbPoint
 10
308.5253248475817
 20
35.79906896914619
 30
0.0
  0
LINE
  5
198
330
1F
100
AcDbEntity
  8
レイヤー 1
 62
     7
370
    13
100
AcDbLine
 10
308.5253248475817
 20
35.79906896914619
 30
0.0
 11
308.5676995220504
 21
35.79906896914619
 31
0.0
  0
LINE
  5
199
330
1F
100
AcDbEntity
  8
レイヤー 1
 62
     7
370
    13
100
AcDbLine
 10
308.5676995220504
 20
35.79906896914619
 30
0.0
 11
308.5676995220504
 21
35.75669429467763
 31
0.0
  0
LINE
  5
19A
330
1F
100
AcDbEntity
  8
レイヤー 1
 62
     7
370
    13
100
AcDbLine
 10
308.5676995220504
 20
35.75669429467763
 30
0.0
 11
308.5676995220504
 21
35.71431962020907
 31
0.0
  0
LINE
  5
19B
330
1F
100
AcDbEntity
  8
レイヤー 1
 62
     7
370
    13
100
AcDbLine
 10
308.5676995220504
 20
35.71431962020907
 30
0.0
 11
308.5676995220504
 21
35.67211720051475
 31
0.0
  0
LINE
  5
19C
330
1F
100
AcDbEntity
  8
レイヤー 1
 62
     7
370
    13
100
AcDbLine
 10
34.58631802587553
 20
96.03931960512782
 30
0.0
 11
34.67089512003841
 21
96.03931960512782
 31
0.0
  0
LINE
  5
19D
330
1F
100
AcDbEntity
  8
レイヤー 1
 62
     7
370
    13
100
AcDbLine
 10
34.58631802587553
 20
96.03931960512782
 30
0.0
 11
35.72922845310717
 21
96.0816942795964
 31
0.0
  0
LINE
  5
19E
330
1F
100
AcDbEntity
  8
レイヤー 1
 62
     7
370
    13
100
AcDbLine
 10
34.58631802587553
 20
96.03931960512782
 30
0.0
 11
34.58631802587553
 21
96.12406895406494
 31
0.0
  0
LINE
  5
19F
330
1F
100
AcDbEntity
  8
レイヤー 1
 62
     7
370
    13
100
AcDbLine
 10
34.58631802587553
 20
96.12406895406494
 30
0.0
 11
35.72922845310717
 21
96.20881830300212
 31
0.0
  0
LINE
  5
1A0
330
1F
100
AcDbEntity
  8
レイヤー 1
 62
     7
370
    13
100
AcDbLine
 10
30.39518711329484
 20
86.8953471681777
 30
0.0
 11
30.43756178776343
 21
86.8953471681777
 31
0.0
  0
LINE
  5
1A1
330
1F
100
AcDbEntity
  8
レイヤー 1
 62
     7
370
    13
100
AcDbLine
 10
30.43756178776343
 20
86.8953471681777
 30
0.0
 11
30.47993646223199
 21
86.93772184264625
 31
0.0
  0
LINE
  5
1A2
330
1F
100
AcDbEntity
  8
レイヤー 1
 62
     7
370
    13
100
AcDbLine
 10
30.47993646223199
 20
86.93772184264625
 30
0.0
 11
30.52231113670055
 21
86.98009651711484
 31
0.0
  0
LINE
  5
1A3
330
1F
100
AcDbEntity
  8
レイヤー 1
 62
     7
370
    13
100
AcDbLine
 10
30.39518711329484
 20
86.8953471681777
 30
0.0
 11
30.39518711329484
 21
86.98009651711484
 31
0.0
  0
LINE
  5
1A4
330
1F
100
AcDbEntity
  8
レイヤー 1
 62
     7
370
    13
100
AcDbLine
 10
30.39518711329484
 20
86.98009651711484
 30
0.0
 11
30.43756178776343
 21
87.0224711915834
 31
0.0
  0
LINE
  5
1A5
330
1F
100
AcDbEntity
  8
レイヤー 1
 62
     7
370
    13
100
AcDbLine
 10
30.43756178776343
 20
87.0224711915834
 30
0.0
 11
30.47993646223199
 21
87.0224711915834
 31
0.0
  0
LINE
  5
1A6
330
1F
100
AcDbEntity
  8
レイヤー 1
 62
     7
370
    13
100
AcDbLine
 10
30.47993646223199
 20
87.0224711915834
 30
0.0
 11
30.52231113670055
 21
87.06484586605197
 31
0.0
  0
LINE
  5
1A7
330
1F
100
AcDbEntity
  8
レイヤー 1
 62
     7
370
    13
100
AcDbLine
 10
30.39518711329484
 20
86.8953471681777
 30
0.0
 11
303.1912835077694
 21
26.48577008909606
 31
0.0
  0
LINE
  5
1A8
330
1F
100
AcDbEntity
  8
レイヤー 1
 62
     7
370
    13
100
AcDbLine
 10
303.1912835077694
 20
26.48577008909606
 30
0.0
 11
303.2336581822381
 21
26.48577008909606
 31
0.0
  0
LINE
  5
1A9
330
1F
100
AcDbEntity
  8
レイヤー 1
 62
     7
370
    13
100
AcDbLine
 10
303.2336581822381
 20
26.48577008909606
 30
0.0
 11
303.2336581822381
 21
26.52814476356463
 31
0.0
  0
LINE
  5
1AA
330
1F
100
AcDbEntity
  8
レイヤー 1
 62
     7
370
    13
100
AcDbLine
 10
303.2336581822381
 20
26.52814476356463
 30
0.0
 11
303.2760328567066
 21
26.52814476356463
 31
0.0
  0
LINE
  5
1AB
330
1F
100
AcDbEntity
  8
レイヤー 1
 62
     7
370
    13
100
AcDbLine
 10
303.2760328567066
 20
26.52814476356463
 30
0.0
 11
303.3184075311751
 21
26.57034718325895
 31
0.0
  0
LINE
  5
1AC
330
1F
100
AcDbEntity
  8
レイヤー 1
 62
     7
370
    13
100
AcDbLine
 10
30.39518711329484
 20
86.8953471681777
 30
0.0
 11
29.16752733712607
 21
86.85314474848337
 31
0.0
  0
LINE
  5
1AD
330
1F
100
AcDbEntity
  8
レイヤー 1
 62
     7
370
    13
100
AcDbLine
 10
29.20990201159464
 20
86.93772184264625
 30
0.0
 11
29.16752733712607
 21
86.85314474848337
 31
0.0
  0
LINE
  5
1AE
330
1F
100
AcDbEntity
  8
レイヤー 1
 62
     7
370
    13
100
AcDbLine
 10
30.39518711329484
 20
86.98009651711484
 30
0.0
 11
29.20990201159464
 21
86.93772184264625
 31
0.0
  0
LINE
  5
1AF
330
1F
100
AcDbEntity
  8
レイヤー 1
 62
     7
370
    13
100
AcDbLine
 10
300.6935892809634
 20
26.69747120666466
 30
0.0
 11
301.963795986375
 21
26.40102074015891
 31
0.0
  0
LINE
  5
1B0
330
1F
100
AcDbEntity
  8
レイヤー 1
 62
     7
370
    13
100
AcDbLine
 10
29.16752733712607
 20
86.85314474848337
 30
0.0
 11
30.52231113670055
 21
86.51431960750907
 31
0.0
  0
LINE
  5
1B1
330
1F
100
AcDbEntity
  8
レイヤー 1
 62
     7
370
    13
100
AcDbLine
 10
303.1912835077694
 20
26.48577008909606
 30
0.0
 11
301.963795986375
 21
26.40102074015891
 31
0.0
  0
LINE
  5
1B2
330
1F
100
AcDbEntity
  8
レイヤー 1
 62
     7
370
    13
100
AcDbLine
 10
30.52231113670055
 20
86.51431960750907
 30
0.0
 11
30.52231113670055
 21
86.47211718781475
 31
0.0
  0
LINE
  5
1B3
330
1F
100
AcDbEntity
  8
レイヤー 1
 62
     7
370
    13
100
AcDbLine
 10
30.47993646223199
 20
86.55669428197763
 30
0.0
 11
30.47993646223199
 21
86.51431960750907
 31
0.0
  0
LINE
  5
1B4
330
1F
100
AcDbEntity
  8
レイヤー 1
 62
     7
370
    13
100
AcDbLine
 10
18.79589512400717
 20
86.26041607024615
 30
0.0
 11
18.79589512400717
 21
86.3873678388776
 31
0.0
  0
LINE
  5
1B5
330
1F
100
AcDbEntity
  8
レイヤー 1
 62
     7
370
    13
100
AcDbLine
 10
18.79589512400717
 20
86.26041607024615
 30
0.0
 11
17.73756179093841
 21
86.21804139577756
 31
0.0
  0
LINE
  5
1B6
330
1F
100
AcDbEntity
  8
レイヤー 1
 62
     7
370
    13
100
AcDbLine
 10
17.77993646540699
 20
86.3451654191833
 30
0.0
 11
17.73756179093841
 21
86.21804139577756
 31
0.0
  0
LINE
  5
1B7
330
1F
100
AcDbEntity
  8
レイヤー 1
 62
     7
370
    13
100
AcDbLine
 10
18.79589512400717
 20
86.3873678388776
 30
0.0
 11
17.77993646540699
 21
86.3451654191833
 31
0.0
  0
LINE
  5
1B8
330
1F
100
AcDbEntity
  8
レイヤー 1
 62
     7
370
    13
100
AcDbLine
 10
18.79589512400717
 20
86.26041607024615
 30
0.0
 11
19.1769226846758
 21
86.175666721309
 31
0.0
  0
LINE
  5
1B9
330
1F
100
AcDbEntity
  8
レイヤー 1
 62
     7
370
    13
100
AcDbLine
 10
18.79589512400717
 20
86.3873678388776
 30
0.0
 11
19.600324919813
 21
86.21804139577756
 31
0.0
  0
LINE
  5
1BA
330
1F
100
AcDbEntity
  8
レイヤー 1
 62
     7
370
    13
100
AcDbLine
 10
17.65298469677553
 20
86.30279074471471
 30
0.0
 11
17.65298469677553
 21
86.26041607024615
 31
0.0
  0
LINE
  5
1BB
330
1F
100
AcDbEntity
  8
レイヤー 1
 62
     7
370
    13
100
AcDbLine
 10
17.65298469677553
 20
86.26041607024615
 30
0.0
 11
17.69518711646984
 21
86.26041607024615
 31
0.0
  0
LINE
  5
1BC
330
1F
100
AcDbEntity
  8
レイヤー 1
 62
     7
370
    13
100
AcDbLine
 10
17.69518711646984
 20
86.26041607024615
 30
0.0
 11
17.73756179093841
 21
86.21804139577756
 31
0.0
  0
LINE
  5
1BD
330
1F
100
AcDbEntity
  8
レイヤー 1
 62
     7
370
    13
100
AcDbLine
 10
17.65298469677553
 20
86.30279074471471
 30
0.0
 11
17.69518711646984
 21
86.3873678388776
 31
0.0
  0
LINE
  5
1BE
330
1F
100
AcDbEntity
  8
レイヤー 1
 62
     7
370
    13
100
AcDbLine
 10
17.69518711646984
 20
86.3873678388776
 30
0.0
 11
17.69518711646984
 21
86.3451654191833
 31
0.0
  0
LINE
  5
1BF
330
1F
100
AcDbEntity
  8
レイヤー 1
 62
     7
370
    13
100
AcDbLine
 10
17.69518711646984
 20
86.3451654191833
 30
0.0
 11
17.73756179093841
 21
86.3451654191833
 31
0.0
  0
LINE
  5
1C0
330
1F
100
AcDbEntity
  8
レイヤー 1
 62
     7
370
    13
100
AcDbLine
 10
17.73756179093841
 20
86.3451654191833
 30
0.0
 11
17.77993646540699
 21
86.3451654191833
 31
0.0
  0
LINE
  5
1C1
330
1F
100
AcDbEntity
  8
レイヤー 1
 62
     7
370
    13
100
AcDbLine
 10
17.65298469677553
 20
86.30279074471471
 30
0.0
 11
14.60493646620074
 21
92.14481141382714
 31
0.0
  0
LINE
  5
1C2
330
1F
100
AcDbEntity
  8
レイヤー 1
 62
     7
370
    13
100
AcDbLine
 10
14.64731114066932
 20
92.22938850799002
 30
0.0
 11
14.60493646620074
 21
92.14481141382714
 31
0.0
  0
LINE
  5
1C3
330
1F
100
AcDbEntity
  8
レイヤー 1
 62
     7
370
    13
100
AcDbLine
 10
17.69518711646984
 20
86.3873678388776
 30
0.0
 11
14.64731114066932
 21
92.22938850799002
 31
0.0
  0
POINT
  5
1C4
330
1F
100
AcDbEntity
  8
レイヤー 1
 62
     7
370
    13
100
AcDbPoint
 10
69.97692267197581
 20
81.13807584800242
 30
0.0
  0
LINE
  5
1C5
330
1F
100
AcDbEntity
  8
レイヤー 1
 62
     7
370
    13
100
AcDbLine
 10
69.97692267197581
 20
81.13807584800242
 30
0.0
 11
69.93454799750722
 21
81.09570117353385
 31
0.0
  0
LINE
  5
1C6
330
1F
100
AcDbEntity
  8
レイヤー 1
 62
     7
370
    13
100
AcDbLine
 10
71.16220777367602
 20
80.84179763627094
 30
0.0
 11
69.97692267197581
 21
81.13807584800242
 31
0.0
  0
POINT
  5
1C7
330
1F
100
AcDbEntity
  8
レイヤー 1
 62
     7
370
    13
100
AcDbPoint
 10
71.16220777367602
 20
80.84179763627094
 30
0.0
  0
LINE
  5
1C8
330
1F
100
AcDbEntity
  8
レイヤー 1
 62
     7
370
    13
100
AcDbLine
 10
69.97692267197581
 20
80.16431960909657
 30
0.0
 11
71.16220777367602
 21
80.84179763627094
 31
0.0
  0
POINT
  5
1C9
330
1F
100
AcDbEntity
  8
レイヤー 1
 62
     7
370
    13
100
AcDbPoint
 10
69.93454799750722
 20
80.16431960909657
 30
0.0
  0
LINE
  5
1CA
330
1F
100
AcDbEntity
  8
レイヤー 1
 62
     7
370
    13
100
AcDbLine
 10
69.93454799750722
 20
80.16431960909657
 30
0.0
 11
69.97692267197581
 21
80.16431960909657
 31
0.0
  0
LINE
  5
1CB
330
1F
100
AcDbEntity
  8
レイヤー 1
 62
     7
370
    13
100
AcDbLine
 10
69.93454799750722
 20
81.09570117353385
 30
0.0
 11
69.93454799750722
 21
80.16431960909657
 31
0.0
  0
POINT
  5
1CC
330
1F
100
AcDbEntity
  8
レイヤー 1
 62
     7
370
    13
100
AcDbPoint
 10
69.89234557781293
 20
80.20669428356513
 30
0.0
  0
LINE
  5
1CD
330
1F
100
AcDbEntity
  8
レイヤー 1
 62
     7
370
    13
100
AcDbLine
 10
69.89234557781293
 20
80.20669428356513
 30
0.0
 11
69.93454799750722
 21
80.16431960909657
 31
0.0
  0
LINE
  5
1CE
330
1F
100
AcDbEntity
  8
レイヤー 1
 62
     7
370
    13
100
AcDbLine
 10
69.89234557781293
 20
80.20669428356513
 30
0.0
 11
69.89234557781293
 21
81.09570117353385
 31
0.0
  0
LINE
  5
1CF
330
1F
100
AcDbEntity
  8
レイヤー 1
 62
     7
370
    13
100
AcDbLine
 10
69.89234557781293
 20
81.09570117353385
 30
0.0
 11
69.93454799750722
 21
81.09570117353385
 31
0.0
  0
LINE
  5
1D0
330
1F
100
AcDbEntity
  8
レイヤー 1
 62
     7
370
    13
100
AcDbLine
 10
69.89234557781293
 20
81.09570117353385
 30
0.0
 11
69.89234557781293
 21
81.13807584800242
 31
0.0
  0
LINE
  5
1D1
330
1F
100
AcDbEntity
  8
レイヤー 1
 62
     7
370
    13
100
AcDbLine
 10
69.89234557781293
 20
80.20669428356513
 30
0.0
 11
69.89234557781293
 21
80.24906895803369
 31
0.0
  0
POINT
  5
1D2
330
1F
100
AcDbEntity
  8
レイヤー 1
 62
     7
370
    13
100
AcDbPoint
 10
69.97692267197581
 20
81.13807584800242
 30
0.0
  0
LINE
  5
1D3
330
1F
100
AcDbEntity
  8
レイヤー 1
 62
     7
370
    13
100
AcDbLine
 10
69.97692267197581
 20
81.13807584800242
 30
0.0
 11
69.93454799750722
 21
81.13807584800242
 31
0.0
  0
LINE
  5
1D4
330
1F
100
AcDbEntity
  8
レイヤー 1
 62
     7
370
    13
100
AcDbLine
 10
69.93454799750722
 20
81.13807584800242
 30
0.0
 11
69.89234557781293
 21
81.09570117353385
 31
0.0
  0
POINT
  5
1D5
330
1F
100
AcDbEntity
  8
レイヤー 1
 62
     7
370
    13
100
AcDbPoint
 10
69.97692267197581
 20
81.13807584800242
 30
0.0
  0
LINE
  5
1D6
330
1F
100
AcDbEntity
  8
レイヤー 1
 62
     7
370
    13
100
AcDbLine
 10
69.97692267197581
 20
81.13807584800242
 30
0.0
 11
69.97692267197581
 21
81.180450522471
 31
0.0
  0
LINE
  5
1D7
330
1F
100
AcDbEntity
  8
レイヤー 1
 62
     7
370
    13
100
AcDbLine
 10
69.97692267197581
 20
81.13807584800242
 30
0.0
 11
71.16220777367602
 21
80.88400005596526
 31
0.0
  0
LINE
  5
1D8
330
1F
100
AcDbEntity
  8
レイヤー 1
 62
     7
370
    13
100
AcDbLine
 10
71.16220777367602
 20
80.84179763627094
 30
0.0
 11
71.16220777367602
 21
80.88400005596526
 31
0.0
  0
LINE
  5
1D9
330
1F
100
AcDbEntity
  8
レイヤー 1
 62
     7
370
    13
100
AcDbLine
 10
71.16220777367602
 20
80.88400005596526
 30
0.0
 11
71.1200053539817
 21
80.92637473043382
 31
0.0
  0
LINE
  5
1DA
330
1F
100
AcDbEntity
  8
レイヤー 1
 62
     7
370
    13
100
AcDbLine
 10
15.02833870133794
 20
95.1081102954648
 30
0.0
 11
16.17124912856958
 21
95.15048496993333
 31
0.0
  0
LINE
  5
1DB
330
1F
100
AcDbEntity
  8
レイヤー 1
 62
     7
370
    13
100
AcDbLine
 10
16.17124912856958
 20
95.15048496993333
 30
0.0
 11
16.17124912856958
 21
95.06573562099621
 31
0.0
  0
LINE
  5
1DC
330
1F
100
AcDbEntity
  8
レイヤー 1
 62
     7
370
    13
100
AcDbLine
 10
15.02833870133794
 20
94.98098627205908
 30
0.0
 11
16.17124912856958
 21
95.06573562099621
 31
0.0
  0
LINE
  5
1DD
330
1F
100
AcDbEntity
  8
レイヤー 1
 62
     7
370
    13
100
AcDbLine
 10
15.02833870133794
 20
94.98098627205908
 30
0.0
 11
15.02833870133794
 21
95.1081102954648
 31
0.0
  0
LINE
  5
1DE
330
1F
100
AcDbEntity
  8
レイヤー 1
 62
     7
370
    13
100
AcDbLine
 10
16.17124912856958
 20
95.06573562099621
 30
0.0
 11
16.21362380303815
 21
95.02336094652762
 31
0.0
  0
LINE
  5
1DF
330
1F
100
AcDbEntity
  8
レイヤー 1
 62
     7
370
    13
100
AcDbLine
 10
16.17124912856958
 20
95.15048496993333
 30
0.0
 11
16.59465136370679
 21
95.06573562099621
 31
0.0
  0
LINE
  5
1E0
330
1F
100
AcDbEntity
  8
レイヤー 1
 62
     7
370
    13
100
AcDbLine
 10
15.02833870133794
 20
94.98098627205908
 30
0.0
 11
15.36699158753801
 21
94.93878385236476
 31
0.0
  0
LINE
  5
1E1
330
1F
100
AcDbEntity
  8
レイヤー 1
 62
     7
370
    13
100
AcDbLine
 10
14.60493646620074
 20
92.44108962555862
 30
0.0
 11
14.56256179173216
 21
92.35651253139574
 31
0.0
  0
LINE
  5
1E2
330
1F
100
AcDbEntity
  8
レイヤー 1
 62
     7
370
    13
100
AcDbLine
 10
14.56256179173216
 20
92.35651253139574
 30
0.0
 11
14.56256179173216
 21
92.27176318245859
 31
0.0
  0
LINE
  5
1E3
330
1F
100
AcDbEntity
  8
レイヤー 1
 62
     7
370
    13
100
AcDbLine
 10
14.56256179173216
 20
92.27176318245859
 30
0.0
 11
14.60493646620074
 21
92.22938850799002
 31
0.0
  0
LINE
  5
1E4
330
1F
100
AcDbEntity
  8
レイヤー 1
 62
     7
370
    13
100
AcDbLine
 10
14.60493646620074
 20
92.22938850799002
 30
0.0
 11
14.60493646620074
 21
92.14481141382714
 31
0.0
  0
LINE
  5
1E5
330
1F
100
AcDbEntity
  8
レイヤー 1
 62
     7
370
    13
100
AcDbLine
 10
14.60493646620074
 20
92.44108962555862
 30
0.0
 11
14.64731114066932
 21
92.44108962555862
 31
0.0
  0
LINE
  5
1E6
330
1F
100
AcDbEntity
  8
レイヤー 1
 62
     7
370
    13
100
AcDbLine
 10
14.64731114066932
 20
92.44108962555862
 30
0.0
 11
14.64731114066932
 21
92.35651253139574
 31
0.0
  0
LINE
  5
1E7
330
1F
100
AcDbEntity
  8
レイヤー 1
 62
     7
370
    13
100
AcDbLine
 10
14.64731114066932
 20
92.35651253139574
 30
0.0
 11
14.64731114066932
 21
92.31413785692715
 31
0.0
  0
LINE
  5
1E8
330
1F
100
AcDbEntity
  8
レイヤー 1
 62
     7
370
    13
100
AcDbLine
 10
14.64731114066932
 20
92.31413785692715
 30
0.0
 11
14.64731114066932
 21
92.22938850799002
 31
0.0
  0
LINE
  5
1E9
330
1F
100
AcDbEntity
  8
レイヤー 1
 62
     7
370
    13
100
AcDbLine
 10
14.60493646620074
 20
92.44108962555862
 30
0.0
 11
14.94358935240081
 21
94.98098627205908
 31
0.0
  0
LINE
  5
1EA
330
1F
100
AcDbEntity
  8
レイヤー 1
 62
     7
370
    13
100
AcDbLine
 10
15.02833870133794
 20
94.98098627205908
 30
0.0
 11
14.94358935240081
 21
94.98098627205908
 31
0.0
  0
LINE
  5
1EB
330
1F
100
AcDbEntity
  8
レイヤー 1
 62
     7
370
    13
100
AcDbLine
 10
14.64731114066932
 20
92.44108962555862
 30
0.0
 11
15.02833870133794
 21
94.98098627205908
 31
0.0
  0
LINE
  5
1EC
330
1F
100
AcDbEntity
  8
レイヤー 1
 62
     7
370
    13
100
AcDbLine
 10
15.02833870133794
 20
95.1081102954648
 30
0.0
 11
14.98596402686937
 21
95.06573562099621
 31
0.0
  0
LINE
  5
1ED
330
1F
100
AcDbEntity
  8
レイヤー 1
 62
     7
370
    13
100
AcDbLine
 10
14.98596402686937
 20
95.06573562099621
 30
0.0
 11
14.94358935240081
 21
95.02336094652762
 31
0.0
  0
LINE
  5
1EE
330
1F
100
AcDbEntity
  8
レイヤー 1
 62
     7
370
    13
100
AcDbLine
 10
14.94358935240081
 20
95.02336094652762
 30
0.0
 11
14.94358935240081
 21
94.98098627205908
 31
0.0
  0
POINT
  5
1EF
330
1F
100
AcDbEntity
  8
レイヤー 1
 62
     7
370
    13
100
AcDbPoint
 10
266.5306444110319
 20
37.57708274908364
 30
0.0
  0
LINE
  5
1F0
330
1F
100
AcDbEntity
  8
レイヤー 1
 62
     7
370
    13
100
AcDbLine
 10
266.5306444110319
 20
37.57708274908364
 30
0.0
 11
266.4882697365632
 21
37.57708274908364
 31
0.0
  0
LINE
  5
1F1
330
1F
100
AcDbEntity
  8
レイヤー 1
 62
     7
370
    13
100
AcDbLine
 10
267.7161017675063
 20
37.32317921182073
 30
0.0
 11
266.5306444110319
 21
37.57708274908364
 31
0.0
  0
POINT
  5
1F2
330
1F
100
AcDbEntity
  8
レイヤー 1
 62
     7
370
    13
100
AcDbPoint
 10
267.7161017675063
 20
37.28080453735217
 30
0.0
  0
LINE
  5
1F3
330
1F
100
AcDbEntity
  8
レイヤー 1
 62
     7
370
    13
100
AcDbLine
 10
267.7161017675063
 20
37.28080453735217
 30
0.0
 11
267.7161017675063
 21
37.32317921182073
 31
0.0
  0
LINE
  5
1F4
330
1F
100
AcDbEntity
  8
レイヤー 1
 62
     7
370
    13
100
AcDbLine
 10
266.5306444110319
 20
36.64570118464636
 30
0.0
 11
267.7161017675063
 21
37.28080453735217
 31
0.0
  0
POINT
  5
1F5
330
1F
100
AcDbEntity
  8
レイヤー 1
 62
     7
370
    13
100
AcDbPoint
 10
266.4882697365632
 20
36.64570118464636
 30
0.0
  0
LINE
  5
1F6
330
1F
100
AcDbEntity
  8
レイヤー 1
 62
     7
370
    13
100
AcDbLine
 10
266.4882697365632
 20
36.64570118464636
 30
0.0
 11
266.5306444110319
 21
36.64570118464636
 31
0.0
  0
LINE
  5
1F7
330
1F
100
AcDbEntity
  8
レイヤー 1
 62
     7
370
    13
100
AcDbLine
 10
266.4882697365632
 20
37.57708274908364
 30
0.0
 11
266.4882697365632
 21
36.64570118464636
 31
0.0
  0
POINT
  5
1F8
330
1F
100
AcDbEntity
  8
レイヤー 1
 62
     7
370
    13
100
AcDbPoint
 10
266.4458950620947
 20
36.64570118464636
 30
0.0
  0
LINE
  5
1F9
330
1F
100
AcDbEntity
  8
レイヤー 1
 62
     7
370
    13
100
AcDbLine
 10
266.4458950620947
 20
36.64570118464636
 30
0.0
 11
266.4882697365632
 21
36.64570118464636
 31
0.0
  0
LINE
  5
1FA
330
1F
100
AcDbEntity
  8
レイヤー 1
 62
     7
370
    13
100
AcDbLine
 10
266.4458950620947
 20
36.64570118464636
 30
0.0
 11
266.4882697365632
 21
37.57708274908364
 31
0.0
  0
POINT
  5
1FB
330
1F
100
AcDbEntity
  8
レイヤー 1
 62
     7
370
    13
100
AcDbPoint
 10
266.4882697365632
 20
37.57708274908364
 30
0.0
  0
LINE
  5
1FC
330
1F
100
AcDbEntity
  8
レイヤー 1
 62
     7
370
    13
100
AcDbLine
 10
266.4458950620947
 20
36.64570118464636
 30
0.0
 11
266.4458950620947
 21
36.68807585911492
 31
0.0
  0
LINE
  5
1FD
330
1F
100
AcDbEntity
  8
レイヤー 1
 62
     7
370
    13
100
AcDbLine
 10
266.4458950620947
 20
36.68807585911492
 30
0.0
 11
266.4035203876261
 21
36.68807585911492
 31
0.0
  0
LINE
  5
1FE
330
1F
100
AcDbEntity
  8
レイヤー 1
 62
     7
370
    13
100
AcDbLine
 10
266.4882697365632
 20
37.57708274908364
 30
0.0
 11
266.4458950620947
 21
37.57708274908364
 31
0.0
  0
LINE
  5
1FF
330
1F
100
AcDbEntity
  8
レイヤー 1
 62
     7
370
    13
100
AcDbLine
 10
266.4458950620947
 20
37.57708274908364
 30
0.0
 11
266.4458950620947
 21
37.61945742355221
 31
0.0
  0
LINE
  5
200
330
1F
100
AcDbEntity
  8
レイヤー 1
 62
     7
370
    13
100
AcDbLine
 10
266.4458950620947
 20
37.61945742355221
 30
0.0
 11
266.4035203876261
 21
37.61945742355221
 31
0.0
  0
LINE
  5
201
330
1F
100
AcDbEntity
  8
レイヤー 1
 62
     7
370
    13
100
AcDbLine
 10
266.5730190855004
 20
37.61945742355221
 30
0.0
 11
266.5306444110319
 21
37.61945742355221
 31
0.0
  0
LINE
  5
202
330
1F
100
AcDbEntity
  8
レイヤー 1
 62
     7
370
    13
100
AcDbLine
 10
266.5306444110319
 20
37.61945742355221
 30
0.0
 11
266.4882697365632
 21
37.61945742355221
 31
0.0
  0
LINE
  5
203
330
1F
100
AcDbEntity
  8
レイヤー 1
 62
     7
370
    13
100
AcDbLine
 10
266.4882697365632
 20
37.61945742355221
 30
0.0
 11
266.4882697365632
 21
37.57708274908364
 31
0.0
  0
LINE
  5
204
330
1F
100
AcDbEntity
  8
レイヤー 1
 62
     7
370
    13
100
AcDbLine
 10
266.5730190855004
 20
37.70403451771509
 30
0.0
 11
266.5730190855004
 21
37.6618320980208
 31
0.0
  0
LINE
  5
205
330
1F
100
AcDbEntity
  8
レイヤー 1
 62
     7
370
    13
100
AcDbLine
 10
266.5730190855004
 20
37.6618320980208
 30
0.0
 11
266.5306444110319
 21
37.6618320980208
 31
0.0
  0
LINE
  5
206
330
1F
100
AcDbEntity
  8
レイヤー 1
 62
     7
370
    13
100
AcDbLine
 10
266.5306444110319
 20
37.6618320980208
 30
0.0
 11
266.5730190855004
 21
37.61945742355221
 31
0.0
  0
POINT
  5
207
330
1F
100
AcDbEntity
  8
レイヤー 1
 62
     7
370
    13
100
AcDbPoint
 10
266.5306444110319
 20
37.57708274908364
 30
0.0
  0
LINE
  5
208
330
1F
100
AcDbEntity
  8
レイヤー 1
 62
     7
370
    13
100
AcDbLine
 10
266.5306444110319
 20
37.57708274908364
 30
0.0
 11
266.5730190855004
 21
37.61945742355221
 31
0.0
  0
LINE
  5
209
330
1F
100
AcDbEntity
  8
レイヤー 1
 62
     7
370
    13
100
AcDbLine
 10
266.5730190855004
 20
37.61945742355221
 30
0.0
 11
267.7161017675063
 21
37.36538163151505
 31
0.0
  0
POINT
  5
20A
330
1F
100
AcDbEntity
  8
レイヤー 1
 62
     7
370
    13
100
AcDbPoint
 10
267.7161017675063
 20
37.32317921182073
 30
0.0
  0
LINE
  5
20B
330
1F
100
AcDbEntity
  8
レイヤー 1
 62
     7
370
    13
100
AcDbLine
 10
267.7161017675063
 20
37.32317921182073
 30
0.0
 11
267.7161017675063
 21
37.36538163151505
 31
0.0
  0
LINE
  5
20C
330
1F
100
AcDbEntity
  8
レイヤー 1
 62
     7
370
    13
100
AcDbLine
 10
267.7161017675063
 20
37.45013098045217
 30
0.0
 11
267.7161017675063
 21
37.40775630598361
 31
0.0
  0
LINE
  5
20D
330
1F
100
AcDbEntity
  8
レイヤー 1
 62
     7
370
    13
100
AcDbLine
 10
267.7161017675063
 20
37.40775630598361
 30
0.0
 11
267.7161017675063
 21
37.36538163151505
 31
0.0
  0
LINE
  5
20E
330
1F
100
AcDbEntity
  8
レイヤー 1
 62
     7
370
    13
100
AcDbLine
 10
18.7535204495386
 20
84.86342985097733
 30
0.0
 11
18.71131802984428
 21
84.7786805020402
 31
0.0
  0
LINE
  5
20F
330
1F
100
AcDbEntity
  8
レイヤー 1
 62
     7
370
    13
100
AcDbLine
 10
18.71131802984428
 20
84.7786805020402
 30
0.0
 11
18.71131802984428
 21
84.73647808234588
 31
0.0
  0
LINE
  5
210
330
1F
100
AcDbEntity
  8
レイヤー 1
 62
     7
370
    13
100
AcDbLine
 10
18.71131802984428
 20
84.73647808234588
 30
0.0
 11
18.7535204495386
 21
84.65172873340873
 31
0.0
  0
LINE
  5
211
330
1F
100
AcDbEntity
  8
レイヤー 1
 62
     7
370
    13
100
AcDbLine
 10
18.7535204495386
 20
84.65172873340873
 30
0.0
 11
18.7535204495386
 21
84.56715163924585
 31
0.0
  0
LINE
  5
212
330
1F
100
AcDbEntity
  8
レイヤー 1
 62
     7
370
    13
100
AcDbLine
 10
18.7535204495386
 20
84.56715163924585
 30
0.0
 11
18.79589512400717
 21
84.52477696477729
 31
0.0
  0
LINE
  5
213
330
1F
100
AcDbEntity
  8
レイヤー 1
 62
     7
370
    13
100
AcDbLine
 10
18.88064447294431
 20
85.71006206647749
 30
0.0
 11
18.7535204495386
 21
84.86342985097733
 31
0.0
  0
LINE
  5
214
330
1F
100
AcDbEntity
  8
レイヤー 1
 62
     7
370
    13
100
AcDbLine
 10
19.13454801020723
 20
86.13346430161468
 30
0.0
 11
19.09234559051292
 21
86.09108962714612
 31
0.0
  0
LINE
  5
215
330
1F
100
AcDbEntity
  8
レイヤー 1
 62
     7
370
    13
100
AcDbLine
 10
19.09234559051292
 20
86.09108962714612
 30
0.0
 11
19.00759624157577
 21
86.04871495267753
 31
0.0
  0
LINE
  5
216
330
1F
100
AcDbEntity
  8
レイヤー 1
 62
     7
370
    13
100
AcDbLine
 10
19.00759624157577
 20
86.04871495267753
 30
0.0
 11
18.96522156710719
 21
86.00651253298324
 31
0.0
  0
LINE
  5
217
330
1F
100
AcDbEntity
  8
レイヤー 1
 62
     7
370
    13
100
AcDbLine
 10
18.96522156710719
 20
86.00651253298324
 30
0.0
 11
18.92301914741289
 21
85.96413785851465
 31
0.0
  0
LINE
  5
218
330
1F
100
AcDbEntity
  8
レイヤー 1
 62
     7
370
    13
100
AcDbLine
 10
18.92301914741289
 20
85.96413785851465
 30
0.0
 11
18.92301914741289
 21
85.92176318404609
 31
0.0
  0
LINE
  5
219
330
1F
100
AcDbEntity
  8
レイヤー 1
 62
     7
370
    13
100
AcDbLine
 10
18.92301914741289
 20
85.92176318404609
 30
0.0
 11
18.88064447294431
 21
85.83701383510893
 31
0.0
  0
LINE
  5
21A
330
1F
100
AcDbEntity
  8
レイヤー 1
 62
     7
370
    13
100
AcDbLine
 10
18.88064447294431
 20
85.83701383510893
 30
0.0
 11
18.88064447294431
 21
85.79481141541464
 31
0.0
  0
LINE
  5
21B
330
1F
100
AcDbEntity
  8
レイヤー 1
 62
     7
370
    13
100
AcDbLine
 10
18.88064447294431
 20
85.79481141541464
 30
0.0
 11
18.88064447294431
 21
85.71006206647749
 31
0.0
  0
LINE
  5
21C
330
1F
100
AcDbEntity
  8
レイヤー 1
 62
     7
370
    13
100
AcDbLine
 10
29.42160312916323
 20
86.68381830538334
 30
0.0
 11
19.13454801020723
 21
86.13346430161468
 31
0.0
  0
LINE
  5
21D
330
1F
100
AcDbEntity
  8
レイヤー 1
 62
     7
370
    13
100
AcDbLine
 10
29.59092957226326
 20
86.30279074471471
 30
0.0
 11
29.59092957226326
 21
86.3451654191833
 31
0.0
  0
LINE
  5
21E
330
1F
100
AcDbEntity
  8
レイヤー 1
 62
     7
370
    13
100
AcDbLine
 10
29.59092957226326
 20
86.3451654191833
 30
0.0
 11
29.59092957226326
 21
86.42974251334618
 31
0.0
  0
LINE
  5
21F
330
1F
100
AcDbEntity
  8
レイヤー 1
 62
     7
370
    13
100
AcDbLine
 10
29.59092957226326
 20
86.42974251334618
 30
0.0
 11
29.5485548977947
 21
86.51431960750907
 31
0.0
  0
LINE
  5
220
330
1F
100
AcDbEntity
  8
レイヤー 1
 62
     7
370
    13
100
AcDbLine
 10
29.5485548977947
 20
86.51431960750907
 30
0.0
 11
29.5485548977947
 21
86.55669428197763
 31
0.0
  0
LINE
  5
221
330
1F
100
AcDbEntity
  8
レイヤー 1
 62
     7
370
    13
100
AcDbLine
 10
29.5485548977947
 20
86.55669428197763
 30
0.0
 11
29.50635247810038
 21
86.59906895644622
 31
0.0
  0
LINE
  5
222
330
1F
100
AcDbEntity
  8
レイヤー 1
 62
     7
370
    13
100
AcDbLine
 10
29.50635247810038
 20
86.59906895644622
 30
0.0
 11
29.50635247810038
 21
86.64144363091478
 31
0.0
  0
LINE
  5
223
330
1F
100
AcDbEntity
  8
レイヤー 1
 62
     7
370
    13
100
AcDbLine
 10
29.50635247810038
 20
86.64144363091478
 30
0.0
 11
29.46397780363182
 21
86.68381830538334
 31
0.0
  0
LINE
  5
224
330
1F
100
AcDbEntity
  8
レイヤー 1
 62
     7
370
    13
100
AcDbLine
 10
29.46397780363182
 20
86.68381830538334
 30
0.0
 11
29.42160312916323
 21
86.68381830538334
 31
0.0
  0
LINE
  5
225
330
1F
100
AcDbEntity
  8
レイヤー 1
 62
     7
370
    13
100
AcDbLine
 10
29.46397780363182
 20
85.4559862744403
 30
0.0
 11
29.59092957226326
 21
86.30279074471471
 31
0.0
  0
LINE
  5
226
330
1F
100
AcDbEntity
  8
レイヤー 1
 62
     7
370
    13
100
AcDbLine
 10
29.29465136053179
 20
85.07513096854595
 30
0.0
 11
29.33685378022611
 21
85.15970806270883
 31
0.0
  0
LINE
  5
227
330
1F
100
AcDbEntity
  8
レイヤー 1
 62
     7
370
    13
100
AcDbLine
 10
29.33685378022611
 20
85.15970806270883
 30
0.0
 11
29.37922845469467
 21
85.20208273717739
 31
0.0
  0
LINE
  5
228
330
1F
100
AcDbEntity
  8
レイヤー 1
 62
     7
370
    13
100
AcDbLine
 10
29.37922845469467
 20
85.20208273717739
 30
0.0
 11
29.42160312916323
 21
85.28683208611454
 31
0.0
  0
LINE
  5
229
330
1F
100
AcDbEntity
  8
レイヤー 1
 62
     7
370
    13
100
AcDbLine
 10
29.42160312916323
 20
85.28683208611454
 30
0.0
 11
29.42160312916323
 21
85.37140918027742
 31
0.0
  0
LINE
  5
22A
330
1F
100
AcDbEntity
  8
レイヤー 1
 62
     7
370
    13
100
AcDbLine
 10
29.42160312916323
 20
85.37140918027742
 30
0.0
 11
29.46397780363182
 21
85.4559862744403
 31
0.0
  0
LINE
  5
22B
330
1F
100
AcDbEntity
  8
レイヤー 1
 62
     7
370
    13
100
AcDbLine
 10
18.79589512400717
 20
84.52477696477729
 30
0.0
 11
18.96522156710719
 21
84.35545052167726
 31
0.0
  0
LINE
  5
22C
330
1F
100
AcDbEntity
  8
レイヤー 1
 62
     7
370
    13
100
AcDbLine
 10
18.96522156710719
 20
84.35545052167726
 30
0.0
 11
19.09234559051292
 21
84.18612407857722
 31
0.0
  0
LINE
  5
22D
330
1F
100
AcDbEntity
  8
レイヤー 1
 62
     7
370
    13
100
AcDbLine
 10
19.09234559051292
 20
84.18612407857722
 30
0.0
 11
19.26167203361295
 21
84.01679763547719
 31
0.0
  0
LINE
  5
22E
330
1F
100
AcDbEntity
  8
レイヤー 1
 62
     7
370
    13
100
AcDbLine
 10
19.26167203361295
 20
84.01679763547719
 30
0.0
 11
19.43099847671297
 21
83.84747119237716
 31
0.0
  0
LINE
  5
22F
330
1F
100
AcDbEntity
  8
レイヤー 1
 62
     7
370
    13
100
AcDbLine
 10
19.43099847671297
 20
83.84747119237716
 30
0.0
 11
19.600324919813
 21
83.67814474927712
 31
0.0
  0
LINE
  5
230
330
1F
100
AcDbEntity
  8
レイヤー 1
 62
     7
370
    13
100
AcDbLine
 10
19.600324919813
 20
83.67814474927712
 30
0.0
 11
19.81185378260734
 21
83.55102072587141
 31
0.0
  0
LINE
  5
231
330
1F
100
AcDbEntity
  8
レイヤー 1
 62
     7
370
    13
100
AcDbLine
 10
19.81185378260734
 20
83.55102072587141
 30
0.0
 11
19.98135248048163
 21
83.42406895723997
 31
0.0
  0
LINE
  5
232
330
1F
100
AcDbEntity
  8
レイヤー 1
 62
     7
370
    13
100
AcDbLine
 10
19.98135248048163
 20
83.42406895723997
 30
0.0
 11
20.19288134327597
 21
83.25474251413993
 31
0.0
  0
LINE
  5
233
330
1F
100
AcDbEntity
  8
レイヤー 1
 62
     7
370
    13
100
AcDbLine
 10
20.19288134327597
 20
83.25474251413993
 30
0.0
 11
20.362207786376
 21
83.12779074550846
 31
0.0
  0
LINE
  5
234
330
1F
100
AcDbEntity
  8
レイヤー 1
 62
     7
370
    13
100
AcDbLine
 10
20.362207786376
 20
83.12779074550846
 30
0.0
 11
20.57390890394461
 21
83.04304139657131
 31
0.0
  0
LINE
  5
235
330
1F
100
AcDbEntity
  8
レイヤー 1
 62
     7
370
    13
100
AcDbLine
 10
20.57390890394461
 20
83.04304139657131
 30
0.0
 11
20.78561002151321
 21
82.91608962793987
 31
0.0
  0
LINE
  5
236
330
1F
100
AcDbEntity
  8
レイヤー 1
 62
     7
370
    13
100
AcDbLine
 10
20.78561002151321
 20
82.91608962793987
 30
0.0
 11
20.95493646461324
 21
82.7891378593084
 31
0.0
  0
LINE
  5
237
330
1F
100
AcDbEntity
  8
レイヤー 1
 62
     7
370
    13
100
AcDbLine
 10
20.95493646461324
 20
82.7891378593084
 30
0.0
 11
21.16663758218185
 21
82.70438851037127
 31
0.0
  0
LINE
  5
238
330
1F
100
AcDbEntity
  8
レイヤー 1
 62
     7
370
    13
100
AcDbLine
 10
21.84394335458197
 20
82.45048497310836
 30
0.0
 11
21.88631802905053
 21
82.45048497310836
 31
0.0
  0
LINE
  5
239
330
1F
100
AcDbEntity
  8
レイヤー 1
 62
     7
370
    13
100
AcDbLine
 10
21.88631802905053
 20
82.45048497310836
 30
0.0
 11
22.60599847591922
 21
82.32336094970262
 31
0.0
  0
LINE
  5
23A
330
1F
100
AcDbEntity
  8
レイヤー 1
 62
     7
370
    13
100
AcDbLine
 10
22.60599847591922
 20
82.32336094970262
 30
0.0
 11
23.32567892278792
 21
82.23878385553974
 31
0.0
  0
LINE
  5
23B
330
1F
100
AcDbEntity
  8
レイヤー 1
 62
     7
370
    13
100
AcDbLine
 10
23.32567892278792
 20
82.23878385553974
 30
0.0
 11
24.04518711488234
 21
82.28098627523406
 31
0.0
  0
LINE
  5
23C
330
1F
100
AcDbEntity
  8
レイヤー 1
 62
     7
370
    13
100
AcDbLine
 10
24.04518711488234
 20
82.28098627523406
 30
0.0
 11
24.76486756175103
 21
82.40811029863977
 31
0.0
  0
LINE
  5
23D
330
1F
100
AcDbEntity
  8
レイヤー 1
 62
     7
370
    13
100
AcDbLine
 10
24.76486756175103
 20
82.40811029863977
 30
0.0
 11
25.5269226830883
 21
82.66201383590268
 31
0.0
  0
LINE
  5
23E
330
1F
100
AcDbEntity
  8
レイヤー 1
 62
     7
370
    13
100
AcDbLine
 10
25.5269226830883
 20
82.66201383590268
 30
0.0
 11
26.28897780442557
 21
82.95846430240843
 31
0.0
  0
LINE
  5
23F
330
1F
100
AcDbEntity
  8
レイヤー 1
 62
     7
370
    13
100
AcDbLine
 10
26.28897780442557
 20
82.95846430240843
 30
0.0
 11
27.05086067098857
 21
83.33931960830282
 31
0.0
  0
LINE
  5
240
330
1F
100
AcDbEntity
  8
レイヤー 1
 62
     7
370
    13
100
AcDbLine
 10
27.05086067098857
 20
83.33931960830282
 30
0.0
 11
27.81291579232584
 21
83.84747119237716
 31
0.0
  0
LINE
  5
241
330
1F
100
AcDbEntity
  8
レイヤー 1
 62
     7
370
    13
100
AcDbLine
 10
27.81291579232584
 20
83.84747119237716
 30
0.0
 11
28.53259623919453
 21
84.44002761584014
 31
0.0
  0
LINE
  5
242
330
1F
100
AcDbEntity
  8
レイヤー 1
 62
     7
370
    13
100
AcDbLine
 10
28.53259623919453
 20
84.44002761584014
 30
0.0
 11
29.29465136053179
 21
85.07513096854595
 31
0.0
  0
LINE
  5
243
330
1F
100
AcDbEntity
  8
レイヤー 1
 62
     7
370
    13
100
AcDbLine
 10
29.29465136053179
 20
85.07513096854595
 30
0.0
 11
29.29465136053179
 21
85.03275629407736
 31
0.0
  0
LINE
  5
244
330
1F
100
AcDbEntity
  8
レイヤー 1
 62
     7
370
    13
100
AcDbLine
 10
29.29465136053179
 20
85.03275629407736
 30
0.0
 11
29.33685378022611
 21
85.03275629407736
 31
0.0
  0
LINE
  5
245
330
1F
100
AcDbEntity
  8
レイヤー 1
 62
     7
370
    13
100
AcDbLine
 10
29.33685378022611
 20
85.03275629407736
 30
0.0
 11
29.37922845469467
 21
84.9903816196088
 31
0.0
  0
LINE
  5
246
330
1F
100
AcDbEntity
  8
レイヤー 1
 62
     7
370
    13
100
AcDbLine
 10
29.37922845469467
 20
84.9903816196088
 30
0.0
 11
28.61734558813166
 21
84.35545052167726
 31
0.0
  0
LINE
  5
247
330
1F
100
AcDbEntity
  8
レイヤー 1
 62
     7
370
    13
100
AcDbLine
 10
28.61734558813166
 20
84.35545052167726
 30
0.0
 11
27.8552904667944
 21
83.76272184344
 31
0.0
  0
LINE
  5
248
330
1F
100
AcDbEntity
  8
レイヤー 1
 62
     7
370
    13
100
AcDbLine
 10
27.8552904667944
 20
83.76272184344
 30
0.0
 11
27.09323534545715
 21
83.25474251413993
 31
0.0
  0
LINE
  5
249
330
1F
100
AcDbEntity
  8
レイヤー 1
 62
     7
370
    13
100
AcDbLine
 10
27.09323534545715
 20
83.25474251413993
 30
0.0
 11
26.37355489858845
 21
82.87371495347128
 31
0.0
  0
LINE
  5
24A
330
1F
100
AcDbEntity
  8
レイヤー 1
 62
     7
370
    13
100
AcDbLine
 10
26.37355489858845
 20
82.87371495347128
 30
0.0
 11
25.61167203202545
 21
82.53506206727124
 31
0.0
  0
LINE
  5
24B
330
1F
100
AcDbEntity
  8
レイヤー 1
 62
     7
370
    13
100
AcDbLine
 10
25.61167203202545
 20
82.53506206727124
 30
0.0
 11
24.84961691068818
 21
82.32336094970262
 31
0.0
  0
LINE
  5
24C
330
1F
100
AcDbEntity
  8
レイヤー 1
 62
     7
370
    13
100
AcDbLine
 10
24.84961691068818
 20
82.32336094970262
 30
0.0
 11
24.08756178935091
 21
82.19640918107117
 31
0.0
  0
LINE
  5
24D
330
1F
100
AcDbEntity
  8
レイヤー 1
 62
     7
370
    13
100
AcDbLine
 10
24.08756178935091
 20
82.19640918107117
 30
0.0
 11
23.36788134248222
 21
82.15403450660261
 31
0.0
  0
LINE
  5
24E
330
1F
100
AcDbEntity
  8
レイヤー 1
 62
     7
370
    13
100
AcDbLine
 10
23.36788134248222
 20
82.15403450660261
 30
0.0
 11
22.64820089561354
 21
82.19640918107117
 31
0.0
  0
LINE
  5
24F
330
1F
100
AcDbEntity
  8
レイヤー 1
 62
     7
370
    13
100
AcDbLine
 10
22.64820089561354
 20
82.19640918107117
 30
0.0
 11
21.92852044874485
 21
82.36573562417121
 31
0.0
  0
LINE
  5
250
330
1F
100
AcDbEntity
  8
レイヤー 1
 62
     7
370
    13
100
AcDbLine
 10
21.92852044874485
 20
82.36573562417121
 30
0.0
 11
21.25121467634473
 21
82.5774367417398
 31
0.0
  0
LINE
  5
251
330
1F
100
AcDbEntity
  8
レイヤー 1
 62
     7
370
    13
100
AcDbLine
 10
21.25121467634473
 20
82.5774367417398
 30
0.0
 11
20.61628357841319
 21
82.91608962793987
 31
0.0
  0
LINE
  5
252
330
1F
100
AcDbEntity
  8
レイヤー 1
 62
     7
370
    13
100
AcDbLine
 10
20.61628357841319
 20
82.91608962793987
 30
0.0
 11
19.98135248048163
 21
83.33931960830282
 31
0.0
  0
LINE
  5
253
330
1F
100
AcDbEntity
  8
レイヤー 1
 62
     7
370
    13
100
AcDbLine
 10
19.98135248048163
 20
83.33931960830282
 30
0.0
 11
19.3886238022444
 21
83.84747119237716
 31
0.0
  0
LINE
  5
254
330
1F
100
AcDbEntity
  8
レイヤー 1
 62
     7
370
    13
100
AcDbLine
 10
19.3886238022444
 20
83.84747119237716
 30
0.0
 11
18.83826979847574
 21
84.44002761584014
 31
0.0
  0
LINE
  5
255
330
1F
100
AcDbEntity
  8
レイヤー 1
 62
     7
370
    13
100
AcDbLine
 10
18.79589512400717
 20
84.52477696477729
 30
0.0
 11
18.79589512400717
 21
84.4824022903087
 31
0.0
  0
LINE
  5
256
330
1F
100
AcDbEntity
  8
レイヤー 1
 62
     7
370
    13
100
AcDbLine
 10
18.79589512400717
 20
84.4824022903087
 30
0.0
 11
18.79589512400717
 21
84.44002761584014
 31
0.0
  0
LINE
  5
257
330
1F
100
AcDbEntity
  8
レイヤー 1
 62
     7
370
    13
100
AcDbLine
 10
18.79589512400717
 20
84.44002761584014
 30
0.0
 11
18.83826979847574
 21
84.44002761584014
 31
0.0
  0
LINE
  5
258
330
1F
100
AcDbEntity
  8
レイヤー 1
 62
     7
370
    13
100
AcDbLine
 10
31.03029046600065
 20
84.60935405894017
 30
0.0
 11
30.31061001913196
 21
83.93204828654004
 31
0.0
  0
LINE
  5
259
330
1F
100
AcDbEntity
  8
レイヤー 1
 62
     7
370
    13
100
AcDbLine
 10
30.31061001913196
 20
83.93204828654004
 30
0.0
 11
29.5485548977947
 21
83.33931960830282
 31
0.0
  0
LINE
  5
25A
330
1F
100
AcDbEntity
  8
レイヤー 1
 62
     7
370
    13
100
AcDbLine
 10
29.5485548977947
 20
83.33931960830282
 30
0.0
 11
28.78667203123169
 21
82.87371495347128
 31
0.0
  0
LINE
  5
25B
330
1F
100
AcDbEntity
  8
レイヤー 1
 62
     7
370
    13
100
AcDbLine
 10
28.78667203123169
 20
82.87371495347128
 30
0.0
 11
28.02461690989443
 21
82.45048497310836
 31
0.0
  0
LINE
  5
25C
330
1F
100
AcDbEntity
  8
レイヤー 1
 62
     7
370
    13
100
AcDbLine
 10
28.02461690989443
 20
82.45048497310836
 30
0.0
 11
27.26256178855718
 21
82.15403450660261
 31
0.0
  0
LINE
  5
25D
330
1F
100
AcDbEntity
  8
レイヤー 1
 62
     7
370
    13
100
AcDbLine
 10
27.26256178855718
 20
82.15403450660261
 30
0.0
 11
26.54288134168847
 21
81.94233338903399
 31
0.0
  0
LINE
  5
25E
330
1F
100
AcDbEntity
  8
レイヤー 1
 62
     7
370
    13
100
AcDbLine
 10
26.54288134168847
 20
81.94233338903399
 30
0.0
 11
25.78099847512547
 21
81.77317920070823
 31
0.0
  0
LINE
  5
25F
330
1F
100
AcDbEntity
  8
レイヤー 1
 62
     7
370
    13
100
AcDbLine
 10
25.78099847512547
 20
81.77317920070823
 30
0.0
 11
25.06131802825678
 21
81.73080452623967
 31
0.0
  0
LINE
  5
260
330
1F
100
AcDbEntity
  8
レイヤー 1
 62
     7
370
    13
100
AcDbLine
 10
25.06131802825678
 20
81.73080452623967
 30
0.0
 11
24.3416375813881
 21
81.81538162040255
 31
0.0
  0
LINE
  5
261
330
1F
100
AcDbEntity
  8
レイヤー 1
 62
     7
370
    13
100
AcDbLine
 10
24.3416375813881
 20
81.81538162040255
 30
0.0
 11
23.79128357761944
 21
81.9001309693397
 31
0.0
  0
LINE
  5
262
330
1F
100
AcDbEntity
  8
レイヤー 1
 62
     7
370
    13
100
AcDbLine
 10
29.37922845469467
 20
84.9903816196088
 30
0.0
 11
31.03029046600065
 21
84.60935405894017
 31
0.0
  0
LINE
  5
263
330
1F
100
AcDbEntity
  8
レイヤー 1
 62
     7
370
    13
100
AcDbLine
 10
29.5485548977947
 20
85.41378385474599
 30
0.0
 11
29.50635247810038
 21
85.41378385474599
 31
0.0
  0
LINE
  5
264
330
1F
100
AcDbEntity
  8
レイヤー 1
 62
     7
370
    13
100
AcDbLine
 10
29.50635247810038
 20
85.41378385474599
 30
0.0
 11
29.46397780363182
 21
85.4559862744403
 31
0.0
  0
LINE
  5
265
330
1F
100
AcDbEntity
  8
レイヤー 1
 62
     7
370
    13
100
AcDbLine
 10
29.37922845469467
 20
84.9903816196088
 30
0.0
 11
29.42160312916323
 21
85.07513096854595
 31
0.0
  0
LINE
  5
266
330
1F
100
AcDbEntity
  8
レイヤー 1
 62
     7
370
    13
100
AcDbLine
 10
29.42160312916323
 20
85.07513096854595
 30
0.0
 11
29.46397780363182
 21
85.11733338824024
 31
0.0
  0
LINE
  5
267
330
1F
100
AcDbEntity
  8
レイヤー 1
 62
     7
370
    13
100
AcDbLine
 10
29.46397780363182
 20
85.11733338824024
 30
0.0
 11
29.50635247810038
 21
85.20208273717739
 31
0.0
  0
LINE
  5
268
330
1F
100
AcDbEntity
  8
レイヤー 1
 62
     7
370
    13
100
AcDbLine
 10
29.50635247810038
 20
85.20208273717739
 30
0.0
 11
29.50635247810038
 21
85.28683208611454
 31
0.0
  0
LINE
  5
269
330
1F
100
AcDbEntity
  8
レイヤー 1
 62
     7
370
    13
100
AcDbLine
 10
29.50635247810038
 20
85.28683208611454
 30
0.0
 11
29.5485548977947
 21
85.32903450580886
 31
0.0
  0
LINE
  5
26A
330
1F
100
AcDbEntity
  8
レイヤー 1
 62
     7
370
    13
100
AcDbLine
 10
29.5485548977947
 20
85.32903450580886
 30
0.0
 11
29.5485548977947
 21
85.41378385474599
 31
0.0
  0
LINE
  5
26B
330
1F
100
AcDbEntity
  8
レイヤー 1
 62
     7
370
    13
100
AcDbLine
 10
31.03029046600065
 20
84.60935405894017
 30
0.0
 11
31.11486756016353
 21
84.65172873340873
 31
0.0
  0
LINE
  5
26C
330
1F
100
AcDbEntity
  8
レイヤー 1
 62
     7
370
    13
100
AcDbLine
 10
31.11486756016353
 20
84.65172873340873
 30
0.0
 11
31.15724223463212
 21
84.73647808234588
 31
0.0
  0
LINE
  5
26D
330
1F
100
AcDbEntity
  8
レイヤー 1
 62
     7
370
    13
100
AcDbLine
 10
31.15724223463212
 20
84.73647808234588
 30
0.0
 11
31.19961690910068
 21
84.82105517650876
 31
0.0
  0
LINE
  5
26E
330
1F
100
AcDbEntity
  8
レイヤー 1
 62
     7
370
    13
100
AcDbLine
 10
31.19961690910068
 20
84.82105517650876
 30
0.0
 11
31.19961690910068
 21
84.90580452544592
 31
0.0
  0
LINE
  5
26F
330
1F
100
AcDbEntity
  8
レイヤー 1
 62
     7
370
    13
100
AcDbLine
 10
31.19961690910068
 20
84.90580452544592
 30
0.0
 11
31.24199158356924
 21
84.9903816196088
 31
0.0
  0
LINE
  5
270
330
1F
100
AcDbEntity
  8
レイヤー 1
 62
     7
370
    13
100
AcDbLine
 10
31.24199158356924
 20
84.9903816196088
 30
0.0
 11
31.24199158356924
 21
85.03275629407736
 31
0.0
  0
LINE
  5
271
330
1F
100
AcDbEntity
  8
レイヤー 1
 62
     7
370
    13
100
AcDbLine
 10
29.5485548977947
 20
85.41378385474599
 30
0.0
 11
31.24199158356924
 21
85.03275629407736
 31
0.0
  0
LINE
  5
272
330
1F
100
AcDbEntity
  8
レイヤー 1
 62
     7
370
    13
100
AcDbLine
 10
29.67567892120042
 20
86.26041607024615
 30
0.0
 11
29.5485548977947
 21
85.41378385474599
 31
0.0
  0
LINE
  5
273
330
1F
100
AcDbEntity
  8
レイヤー 1
 62
     7
370
    13
100
AcDbLine
 10
29.67567892120042
 20
86.26041607024615
 30
0.0
 11
29.63330424673185
 21
86.26041607024615
 31
0.0
  0
LINE
  5
274
330
1F
100
AcDbEntity
  8
レイヤー 1
 62
     7
370
    13
100
AcDbLine
 10
29.63330424673185
 20
86.26041607024615
 30
0.0
 11
29.59092957226326
 21
86.26041607024615
 31
0.0
  0
LINE
  5
275
330
1F
100
AcDbEntity
  8
レイヤー 1
 62
     7
370
    13
100
AcDbLine
 10
29.59092957226326
 20
86.26041607024615
 30
0.0
 11
29.59092957226326
 21
86.30279074471471
 31
0.0
  0
LINE
  5
276
330
1F
100
AcDbEntity
  8
レイヤー 1
 62
     7
370
    13
100
AcDbLine
 10
31.36894335220072
 20
85.87938850957752
 30
0.0
 11
31.24199158356924
 21
85.03275629407736
 31
0.0
  0
LINE
  5
277
330
1F
100
AcDbEntity
  8
レイヤー 1
 62
     7
370
    13
100
AcDbLine
 10
29.67567892120042
 20
86.26041607024615
 30
0.0
 11
31.36894335220072
 21
85.87938850957752
 31
0.0
  0
LINE
  5
278
330
1F
100
AcDbEntity
  8
レイヤー 1
 62
     7
370
    13
100
AcDbLine
 10
29.50635247810038
 20
86.72602072507766
 30
0.0
 11
29.50635247810038
 21
86.68381830538334
 31
0.0
  0
LINE
  5
279
330
1F
100
AcDbEntity
  8
レイヤー 1
 62
     7
370
    13
100
AcDbLine
 10
29.50635247810038
 20
86.72602072507766
 30
0.0
 11
29.46397780363182
 21
86.72602072507766
 31
0.0
  0
LINE
  5
27A
330
1F
100
AcDbEntity
  8
レイヤー 1
 62
     7
370
    13
100
AcDbLine
 10
31.19961690910068
 20
86.3873678388776
 30
0.0
 11
31.24199158356924
 21
86.3873678388776
 31
0.0
  0
LINE
  5
27B
330
1F
100
AcDbEntity
  8
レイヤー 1
 62
     7
370
    13
100
AcDbLine
 10
31.24199158356924
 20
86.3873678388776
 30
0.0
 11
31.28419400326356
 21
86.3451654191833
 31
0.0
  0
LINE
  5
27C
330
1F
100
AcDbEntity
  8
レイヤー 1
 62
     7
370
    13
100
AcDbLine
 10
31.28419400326356
 20
86.3451654191833
 30
0.0
 11
31.32656867773213
 21
86.30279074471471
 31
0.0
  0
LINE
  5
27D
330
1F
100
AcDbEntity
  8
レイヤー 1
 62
     7
370
    13
100
AcDbLine
 10
31.32656867773213
 20
86.30279074471471
 30
0.0
 11
31.36894335220072
 21
86.26041607024615
 31
0.0
  0
LINE
  5
27E
330
1F
100
AcDbEntity
  8
レイヤー 1
 62
     7
370
    13
100
AcDbLine
 10
31.36894335220072
 20
86.26041607024615
 30
0.0
 11
31.36894335220072
 21
86.175666721309
 31
0.0
  0
LINE
  5
27F
330
1F
100
AcDbEntity
  8
レイヤー 1
 62
     7
370
    13
100
AcDbLine
 10
31.36894335220072
 20
86.175666721309
 30
0.0
 11
31.36894335220072
 21
86.09108962714612
 31
0.0
  0
LINE
  5
280
330
1F
100
AcDbEntity
  8
レイヤー 1
 62
     7
370
    13
100
AcDbLine
 10
31.36894335220072
 20
86.09108962714612
 30
0.0
 11
31.36894335220072
 21
86.00651253298324
 31
0.0
  0
LINE
  5
281
330
1F
100
AcDbEntity
  8
レイヤー 1
 62
     7
370
    13
100
AcDbLine
 10
31.36894335220072
 20
86.00651253298324
 30
0.0
 11
31.36894335220072
 21
85.87938850957752
 31
0.0
  0
LINE
  5
282
330
1F
100
AcDbEntity
  8
レイヤー 1
 62
     7
370
    13
100
AcDbLine
 10
18.88064447294431
 20
85.71006206647749
 30
0.0
 11
18.83826979847574
 21
85.71006206647749
 31
0.0
  0
POINT
  5
283
330
1F
100
AcDbEntity
  8
レイヤー 1
 62
     7
370
    13
100
AcDbPoint
 10
18.7535204495386
 20
84.86342985097733
 30
0.0
  0
LINE
  5
284
330
1F
100
AcDbEntity
  8
レイヤー 1
 62
     7
370
    13
100
AcDbLine
 10
18.7535204495386
 20
84.86342985097733
 30
0.0
 11
18.71131802984428
 21
84.86342985097733
 31
0.0
  0
LINE
  5
285
330
1F
100
AcDbEntity
  8
レイヤー 1
 62
     7
370
    13
100
AcDbLine
 10
300.2278123713576
 20
26.35881832046459
 30
0.0
 11
300.2278123713576
 21
26.44339541462747
 31
0.0
  0
LINE
  5
286
330
1F
100
AcDbEntity
  8
レイヤー 1
 62
     7
370
    13
100
AcDbLine
 10
300.2278123713576
 20
26.44339541462747
 30
0.0
 11
300.2278123713576
 21
26.52814476356463
 31
0.0
  0
LINE
  5
287
330
1F
100
AcDbEntity
  8
レイヤー 1
 62
     7
370
    13
100
AcDbLine
 10
300.2278123713576
 20
26.52814476356463
 30
0.0
 11
300.2278123713576
 21
26.65509653219607
 31
0.0
  0
LINE
  5
288
330
1F
100
AcDbEntity
  8
レイヤー 1
 62
     7
370
    13
100
AcDbLine
 10
300.2278123713576
 20
26.65509653219607
 30
0.0
 11
300.1854376968889
 21
26.69747120666466
 31
0.0
  0
LINE
  5
289
330
1F
100
AcDbEntity
  8
レイヤー 1
 62
     7
370
    13
100
AcDbLine
 10
300.1854376968889
 20
26.69747120666466
 30
0.0
 11
300.1854376968889
 21
26.78204830082754
 31
0.0
  0
LINE
  5
28A
330
1F
100
AcDbEntity
  8
レイヤー 1
 62
     7
370
    13
100
AcDbLine
 10
300.1854376968889
 20
26.78204830082754
 30
0.0
 11
300.1434075319689
 21
26.8244229752961
 31
0.0
  0
LINE
  5
28B
330
1F
100
AcDbEntity
  8
レイヤー 1
 62
     7
370
    13
100
AcDbLine
 10
300.1434075319689
 20
26.8244229752961
 30
0.0
 11
300.1010328575003
 21
26.8244229752961
 31
0.0
  0
LINE
  5
28C
330
1F
100
AcDbEntity
  8
レイヤー 1
 62
     7
370
    13
100
AcDbLine
 10
300.1010328575003
 20
26.8244229752961
 30
0.0
 11
300.0586581830318
 21
26.86679764976469
 31
0.0
  0
LINE
  5
28D
330
1F
100
AcDbEntity
  8
レイヤー 1
 62
     7
370
    13
100
AcDbLine
 10
300.1010328575003
 20
25.51201385019019
 30
0.0
 11
300.2278123713576
 21
26.35881832046459
 31
0.0
  0
LINE
  5
28E
330
1F
100
AcDbEntity
  8
レイヤー 1
 62
     7
370
    13
100
AcDbLine
 10
299.8891594851575
 20
25.04640919535868
 30
0.0
 11
299.9739088340946
 21
25.13098628952156
 31
0.0
  0
LINE
  5
28F
330
1F
100
AcDbEntity
  8
レイヤー 1
 62
     7
370
    13
100
AcDbLine
 10
299.9739088340946
 20
25.13098628952156
 30
0.0
 11
300.0162835085632
 21
25.17336096399012
 31
0.0
  0
LINE
  5
290
330
1F
100
AcDbEntity
  8
レイヤー 1
 62
     7
370
    13
100
AcDbLine
 10
300.0162835085632
 20
25.17336096399012
 30
0.0
 11
300.0586581830318
 21
25.25811031292727
 31
0.0
  0
LINE
  5
291
330
1F
100
AcDbEntity
  8
レイヤー 1
 62
     7
370
    13
100
AcDbLine
 10
300.0586581830318
 20
25.25811031292727
 30
0.0
 11
300.0586581830318
 21
25.34268740709015
 31
0.0
  0
LINE
  5
292
330
1F
100
AcDbEntity
  8
レイヤー 1
 62
     7
370
    13
100
AcDbLine
 10
300.0586581830318
 20
25.34268740709015
 30
0.0
 11
300.1010328575003
 21
25.4274367560273
 31
0.0
  0
LINE
  5
293
330
1F
100
AcDbEntity
  8
レイヤー 1
 62
     7
370
    13
100
AcDbLine
 10
300.1010328575003
 20
25.4274367560273
 30
0.0
 11
300.1010328575003
 21
25.51201385019019
 31
0.0
  0
LINE
  5
294
330
1F
100
AcDbEntity
  8
レイヤー 1
 62
     7
370
    13
100
AcDbLine
 10
292.6926995260191
 20
22.33701385098394
 30
0.0
 11
293.1581319260763
 21
22.25243675682106
 31
0.0
  0
LINE
  5
295
330
1F
100
AcDbEntity
  8
レイヤー 1
 62
     7
370
    13
100
AcDbLine
 10
293.1581319260763
 20
22.25243675682106
 30
0.0
 11
293.8778123729451
 21
22.21006208235249
 31
0.0
  0
LINE
  5
296
330
1F
100
AcDbEntity
  8
レイヤー 1
 62
     7
370
    13
100
AcDbLine
 10
293.8778123729451
 20
22.21006208235249
 30
0.0
 11
294.6398674942823
 21
22.25243675682106
 31
0.0
  0
LINE
  5
297
330
1F
100
AcDbEntity
  8
レイヤー 1
 62
     7
370
    13
100
AcDbLine
 10
294.6398674942823
 20
22.25243675682106
 30
0.0
 11
295.3595479411509
 21
22.3793885254525
 31
0.0
  0
LINE
  5
298
330
1F
100
AcDbEntity
  8
レイヤー 1
 62
     7
370
    13
100
AcDbLine
 10
295.3595479411509
 20
22.3793885254525
 30
0.0
 11
296.1216030624882
 21
22.59108964302112
 31
0.0
  0
LINE
  5
299
330
1F
100
AcDbEntity
  8
レイヤー 1
 62
     7
370
    13
100
AcDbLine
 10
296.1216030624882
 20
22.59108964302112
 30
0.0
 11
296.8836581838256
 21
22.92974252922116
 31
0.0
  0
LINE
  5
29A
330
1F
100
AcDbEntity
  8
レイヤー 1
 62
     7
370
    13
100
AcDbLine
 10
296.8836581838256
 20
22.92974252922116
 30
0.0
 11
297.6457133051628
 21
23.31077008988981
 31
0.0
  0
LINE
  5
29B
330
1F
100
AcDbEntity
  8
レイヤー 1
 62
     7
370
    13
100
AcDbLine
 10
297.6457133051628
 20
23.31077008988981
 30
0.0
 11
298.4077684265001
 21
23.81874941918988
 31
0.0
  0
LINE
  5
29C
330
1F
100
AcDbEntity
  8
レイヤー 1
 62
     7
370
    13
100
AcDbLine
 10
298.4077684265001
 20
23.81874941918988
 30
0.0
 11
299.1694790382888
 21
24.41147809742714
 31
0.0
  0
LINE
  5
29D
330
1F
100
AcDbEntity
  8
レイヤー 1
 62
     7
370
    13
100
AcDbLine
 10
299.1694790382888
 20
24.41147809742714
 30
0.0
 11
299.8891594851575
 21
25.04640919535868
 31
0.0
  0
LINE
  5
29E
330
1F
100
AcDbEntity
  8
レイヤー 1
 62
     7
370
    13
100
AcDbLine
 10
301.5827684257063
 20
24.70775630915861
 30
0.0
 11
299.8891594851575
 21
25.04640919535868
 31
0.0
  0
LINE
  5
29F
330
1F
100
AcDbEntity
  8
レイヤー 1
 62
     7
370
    13
100
AcDbLine
 10
294.5554626548936
 20
21.95598629031531
 30
0.0
 11
294.8517408666252
 21
21.91378387062099
 31
0.0
  0
LINE
  5
2A0
330
1F
100
AcDbEntity
  8
レイヤー 1
 62
     7
370
    13
100
AcDbLine
 10
294.8517408666252
 20
21.91378387062099
 30
0.0
 11
295.5710768039453
 21
21.87140919615243
 31
0.0
  0
LINE
  5
2A1
330
1F
100
AcDbEntity
  8
レイヤー 1
 62
     7
370
    13
100
AcDbLine
 10
295.5710768039453
 20
21.87140919615243
 30
0.0
 11
296.3331319252826
 21
21.91378387062099
 31
0.0
  0
LINE
  5
2A2
330
1F
100
AcDbEntity
  8
レイヤー 1
 62
     7
370
    13
100
AcDbLine
 10
296.3331319252826
 20
21.91378387062099
 30
0.0
 11
297.0528123721513
 21
22.04073563925246
 31
0.0
  0
LINE
  5
2A3
330
1F
100
AcDbEntity
  8
レイヤー 1
 62
     7
370
    13
100
AcDbLine
 10
297.0528123721513
 20
22.04073563925246
 30
0.0
 11
297.8148674934886
 21
22.25243675682106
 31
0.0
  0
LINE
  5
2A4
330
1F
100
AcDbEntity
  8
レイヤー 1
 62
     7
370
    13
100
AcDbLine
 10
297.8148674934886
 20
22.25243675682106
 30
0.0
 11
298.5769226148258
 21
22.59108964302112
 31
0.0
  0
LINE
  5
2A5
330
1F
100
AcDbEntity
  8
レイヤー 1
 62
     7
370
    13
100
AcDbLine
 10
298.5769226148258
 20
22.59108964302112
 30
0.0
 11
299.3389777361631
 21
22.97211720368975
 31
0.0
  0
LINE
  5
2A6
330
1F
100
AcDbEntity
  8
レイヤー 1
 62
     7
370
    13
100
AcDbLine
 10
299.3389777361631
 20
22.97211720368975
 30
0.0
 11
300.1010328575003
 21
23.48009653298982
 31
0.0
  0
LINE
  5
2A7
330
1F
100
AcDbEntity
  8
レイヤー 1
 62
     7
370
    13
100
AcDbLine
 10
300.1010328575003
 20
23.48009653298982
 30
0.0
 11
300.8207133043691
 21
24.03045053675851
 31
0.0
  0
LINE
  5
2A8
330
1F
100
AcDbEntity
  8
レイヤー 1
 62
     7
370
    13
100
AcDbLine
 10
300.8207133043691
 20
24.03045053675851
 30
0.0
 11
301.5827684257063
 21
24.70775630915861
 31
0.0
  0
LINE
  5
2A9
330
1F
100
AcDbEntity
  8
レイヤー 1
 62
     7
370
    13
100
AcDbLine
 10
301.7942972885006
 20
25.13098628952156
 30
0.0
 11
300.1010328575003
 21
25.51201385019019
 31
0.0
  0
LINE
  5
2AA
330
1F
100
AcDbEntity
  8
レイヤー 1
 62
     7
370
    13
100
AcDbLine
 10
301.5827684257063
 20
24.70775630915861
 30
0.0
 11
301.6247985906264
 21
24.75013098362717
 31
0.0
  0
LINE
  5
2AB
330
1F
100
AcDbEntity
  8
レイヤー 1
 62
     7
370
    13
100
AcDbLine
 10
301.6247985906264
 20
24.75013098362717
 30
0.0
 11
301.6671732650949
 21
24.83470807779008
 31
0.0
  0
LINE
  5
2AC
330
1F
100
AcDbEntity
  8
レイヤー 1
 62
     7
370
    13
100
AcDbLine
 10
301.6671732650949
 20
24.83470807779008
 30
0.0
 11
301.7095479395634
 21
24.91945742672721
 31
0.0
  0
LINE
  5
2AD
330
1F
100
AcDbEntity
  8
レイヤー 1
 62
     7
370
    13
100
AcDbLine
 10
301.7095479395634
 20
24.91945742672721
 30
0.0
 11
301.7519226140321
 21
24.9618321011958
 31
0.0
  0
LINE
  5
2AE
330
1F
100
AcDbEntity
  8
レイヤー 1
 62
     7
370
    13
100
AcDbLine
 10
301.7519226140321
 20
24.9618321011958
 30
0.0
 11
301.7519226140321
 21
25.04640919535868
 31
0.0
  0
LINE
  5
2AF
330
1F
100
AcDbEntity
  8
レイヤー 1
 62
     7
370
    13
100
AcDbLine
 10
301.7519226140321
 20
25.04640919535868
 30
0.0
 11
301.7942972885006
 21
25.13098628952156
 31
0.0
  0
LINE
  5
2B0
330
1F
100
AcDbEntity
  8
レイヤー 1
 62
     7
370
    13
100
AcDbLine
 10
301.8790466374378
 20
25.97779075979597
 30
0.0
 11
300.2278123713576
 21
26.35881832046459
 31
0.0
  0
LINE
  5
2B1
330
1F
100
AcDbEntity
  8
レイヤー 1
 62
     7
370
    13
100
AcDbLine
 10
301.7942972885006
 20
25.13098628952156
 30
0.0
 11
301.8790466374378
 21
25.97779075979597
 31
0.0
  0
POINT
  5
2B2
330
1F
100
AcDbEntity
  8
レイヤー 1
 62
     7
370
    13
100
AcDbPoint
 10
301.5827684257063
 20
24.70775630915861
 30
0.0
  0
LINE
  5
2B3
330
1F
100
AcDbEntity
  8
レイヤー 1
 62
     7
370
    13
100
AcDbLine
 10
301.5827684257063
 20
24.70775630915861
 30
0.0
 11
301.6247985906264
 21
24.70775630915861
 31
0.0
  0
LINE
  5
2B4
330
1F
100
AcDbEntity
  8
レイヤー 1
 62
     7
370
    13
100
AcDbLine
 10
31.36894335220072
 20
85.87938850957752
 30
0.0
 11
31.36894335220072
 21
86.00651253298324
 31
0.0
  0
LINE
  5
2B5
330
1F
100
AcDbEntity
  8
レイヤー 1
 62
     7
370
    13
100
AcDbLine
 10
31.36894335220072
 20
86.00651253298324
 30
0.0
 11
31.36894335220072
 21
86.09108962714612
 31
0.0
  0
LINE
  5
2B6
330
1F
100
AcDbEntity
  8
レイヤー 1
 62
     7
370
    13
100
AcDbLine
 10
31.36894335220072
 20
86.09108962714612
 30
0.0
 11
31.36894335220072
 21
86.175666721309
 31
0.0
  0
LINE
  5
2B7
330
1F
100
AcDbEntity
  8
レイヤー 1
 62
     7
370
    13
100
AcDbLine
 10
31.36894335220072
 20
86.175666721309
 30
0.0
 11
31.36894335220072
 21
86.26041607024615
 31
0.0
  0
LINE
  5
2B8
330
1F
100
AcDbEntity
  8
レイヤー 1
 62
     7
370
    13
100
AcDbLine
 10
31.36894335220072
 20
86.26041607024615
 30
0.0
 11
31.32656867773213
 21
86.30279074471471
 31
0.0
  0
LINE
  5
2B9
330
1F
100
AcDbEntity
  8
レイヤー 1
 62
     7
370
    13
100
AcDbLine
 10
31.32656867773213
 20
86.30279074471471
 30
0.0
 11
31.28419400326356
 21
86.3451654191833
 31
0.0
  0
LINE
  5
2BA
330
1F
100
AcDbEntity
  8
レイヤー 1
 62
     7
370
    13
100
AcDbLine
 10
31.28419400326356
 20
86.3451654191833
 30
0.0
 11
31.24199158356924
 21
86.3873678388776
 31
0.0
  0
LINE
  5
2BB
330
1F
100
AcDbEntity
  8
レイヤー 1
 62
     7
370
    13
100
AcDbLine
 10
31.24199158356924
 20
86.3873678388776
 30
0.0
 11
31.19961690910068
 21
86.3873678388776
 31
0.0
  0
LINE
  5
2BC
330
1F
100
AcDbEntity
  8
レイヤー 1
 62
     7
370
    13
100
AcDbLine
 10
31.24199158356924
 20
85.03275629407736
 30
0.0
 11
31.36894335220072
 21
85.87938850957752
 31
0.0
  0
LINE
  5
2BD
330
1F
100
AcDbEntity
  8
レイヤー 1
 62
     7
370
    13
100
AcDbLine
 10
31.03029046600065
 20
84.60935405894017
 30
0.0
 11
31.11486756016353
 21
84.65172873340873
 31
0.0
  0
LINE
  5
2BE
330
1F
100
AcDbEntity
  8
レイヤー 1
 62
     7
370
    13
100
AcDbLine
 10
31.11486756016353
 20
84.65172873340873
 30
0.0
 11
31.15724223463212
 21
84.73647808234588
 31
0.0
  0
LINE
  5
2BF
330
1F
100
AcDbEntity
  8
レイヤー 1
 62
     7
370
    13
100
AcDbLine
 10
31.15724223463212
 20
84.73647808234588
 30
0.0
 11
31.19961690910068
 21
84.82105517650876
 31
0.0
  0
LINE
  5
2C0
330
1F
100
AcDbEntity
  8
レイヤー 1
 62
     7
370
    13
100
AcDbLine
 10
31.19961690910068
 20
84.82105517650876
 30
0.0
 11
31.19961690910068
 21
84.90580452544592
 31
0.0
  0
LINE
  5
2C1
330
1F
100
AcDbEntity
  8
レイヤー 1
 62
     7
370
    13
100
AcDbLine
 10
31.19961690910068
 20
84.90580452544592
 30
0.0
 11
31.24199158356924
 21
84.9903816196088
 31
0.0
  0
LINE
  5
2C2
330
1F
100
AcDbEntity
  8
レイヤー 1
 62
     7
370
    13
100
AcDbLine
 10
31.24199158356924
 20
84.9903816196088
 30
0.0
 11
31.24199158356924
 21
85.03275629407736
 31
0.0
  0
LINE
  5
2C3
330
1F
100
AcDbEntity
  8
レイヤー 1
 62
     7
370
    13
100
AcDbLine
 10
23.9182353462509
 20
81.9001309693397
 30
0.0
 11
24.3416375813881
 21
81.81538162040255
 31
0.0
  0
LINE
  5
2C4
330
1F
100
AcDbEntity
  8
レイヤー 1
 62
     7
370
    13
100
AcDbLine
 10
24.3416375813881
 20
81.81538162040255
 30
0.0
 11
25.06131802825678
 21
81.73080452623967
 31
0.0
  0
LINE
  5
2C5
330
1F
100
AcDbEntity
  8
レイヤー 1
 62
     7
370
    13
100
AcDbLine
 10
25.06131802825678
 20
81.73080452623967
 30
0.0
 11
25.78099847512547
 21
81.77317920070823
 31
0.0
  0
LINE
  5
2C6
330
1F
100
AcDbEntity
  8
レイヤー 1
 62
     7
370
    13
100
AcDbLine
 10
25.78099847512547
 20
81.77317920070823
 30
0.0
 11
26.54288134168847
 21
81.94233338903399
 31
0.0
  0
LINE
  5
2C7
330
1F
100
AcDbEntity
  8
レイヤー 1
 62
     7
370
    13
100
AcDbLine
 10
26.54288134168847
 20
81.94233338903399
 30
0.0
 11
27.26256178855718
 21
82.15403450660261
 31
0.0
  0
LINE
  5
2C8
330
1F
100
AcDbEntity
  8
レイヤー 1
 62
     7
370
    13
100
AcDbLine
 10
27.26256178855718
 20
82.15403450660261
 30
0.0
 11
28.02461690989443
 21
82.45048497310836
 31
0.0
  0
LINE
  5
2C9
330
1F
100
AcDbEntity
  8
レイヤー 1
 62
     7
370
    13
100
AcDbLine
 10
28.02461690989443
 20
82.45048497310836
 30
0.0
 11
28.78667203123169
 21
82.87371495347128
 31
0.0
  0
LINE
  5
2CA
330
1F
100
AcDbEntity
  8
レイヤー 1
 62
     7
370
    13
100
AcDbLine
 10
28.78667203123169
 20
82.87371495347128
 30
0.0
 11
29.5485548977947
 21
83.33931960830282
 31
0.0
  0
LINE
  5
2CB
330
1F
100
AcDbEntity
  8
レイヤー 1
 62
     7
370
    13
100
AcDbLine
 10
29.5485548977947
 20
83.33931960830282
 30
0.0
 11
30.31061001913196
 21
83.93204828654004
 31
0.0
  0
LINE
  5
2CC
330
1F
100
AcDbEntity
  8
レイヤー 1
 62
     7
370
    13
100
AcDbLine
 10
30.31061001913196
 20
83.93204828654004
 30
0.0
 11
31.03029046600065
 21
84.60935405894017
 31
0.0
  0
LINE
  5
2CD
330
1F
100
AcDbEntity
  8
レイヤー 1
 62
     7
370
    13
100
AcDbLine
 10
292.7771043654077
 20
22.33701385098394
 30
0.0
 11
293.1581319260763
 21
22.25243675682106
 31
0.0
  0
LINE
  5
2CE
330
1F
100
AcDbEntity
  8
レイヤー 1
 62
     7
370
    13
100
AcDbLine
 10
293.1581319260763
 20
22.25243675682106
 30
0.0
 11
293.8778123729451
 21
22.21006208235249
 31
0.0
  0
LINE
  5
2CF
330
1F
100
AcDbEntity
  8
レイヤー 1
 62
     7
370
    13
100
AcDbLine
 10
293.8778123729451
 20
22.21006208235249
 30
0.0
 11
294.6398674942823
 21
22.25243675682106
 31
0.0
  0
LINE
  5
2D0
330
1F
100
AcDbEntity
  8
レイヤー 1
 62
     7
370
    13
100
AcDbLine
 10
294.6398674942823
 20
22.25243675682106
 30
0.0
 11
295.3595479411509
 21
22.3793885254525
 31
0.0
  0
LINE
  5
2D1
330
1F
100
AcDbEntity
  8
レイヤー 1
 62
     7
370
    13
100
AcDbLine
 10
295.3595479411509
 20
22.3793885254525
 30
0.0
 11
296.1216030624882
 21
22.59108964302112
 31
0.0
  0
LINE
  5
2D2
330
1F
100
AcDbEntity
  8
レイヤー 1
 62
     7
370
    13
100
AcDbLine
 10
296.1216030624882
 20
22.59108964302112
 30
0.0
 11
296.8836581838256
 21
22.92974252922116
 31
0.0
  0
LINE
  5
2D3
330
1F
100
AcDbEntity
  8
レイヤー 1
 62
     7
370
    13
100
AcDbLine
 10
296.8836581838256
 20
22.92974252922116
 30
0.0
 11
297.6457133051628
 21
23.31077008988981
 31
0.0
  0
LINE
  5
2D4
330
1F
100
AcDbEntity
  8
レイヤー 1
 62
     7
370
    13
100
AcDbLine
 10
297.6457133051628
 20
23.31077008988981
 30
0.0
 11
298.4077684265001
 21
23.81874941918988
 31
0.0
  0
LINE
  5
2D5
330
1F
100
AcDbEntity
  8
レイヤー 1
 62
     7
370
    13
100
AcDbLine
 10
298.4077684265001
 20
23.81874941918988
 30
0.0
 11
299.1694790382888
 21
24.41147809742714
 31
0.0
  0
LINE
  5
2D6
330
1F
100
AcDbEntity
  8
レイヤー 1
 62
     7
370
    13
100
AcDbLine
 10
299.1694790382888
 20
24.41147809742714
 30
0.0
 11
299.8891594851575
 21
25.04640919535868
 31
0.0
  0
LINE
  5
2D7
330
1F
100
AcDbEntity
  8
レイヤー 1
 62
     7
370
    13
100
AcDbLine
 10
31.24199158356924
 20
85.03275629407736
 30
0.0
 11
300.1010328575003
 21
25.51201385019019
 31
0.0
  0
LINE
  5
2D8
330
1F
100
AcDbEntity
  8
レイヤー 1
 62
     7
370
    13
100
AcDbLine
 10
299.8891594851575
 20
25.04640919535868
 30
0.0
 11
299.9739088340946
 21
25.13098628952156
 31
0.0
  0
LINE
  5
2D9
330
1F
100
AcDbEntity
  8
レイヤー 1
 62
     7
370
    13
100
AcDbLine
 10
299.9739088340946
 20
25.13098628952156
 30
0.0
 11
300.0162835085632
 21
25.17336096399012
 31
0.0
  0
LINE
  5
2DA
330
1F
100
AcDbEntity
  8
レイヤー 1
 62
     7
370
    13
100
AcDbLine
 10
300.0162835085632
 20
25.17336096399012
 30
0.0
 11
300.0586581830318
 21
25.25811031292727
 31
0.0
  0
LINE
  5
2DB
330
1F
100
AcDbEntity
  8
レイヤー 1
 62
     7
370
    13
100
AcDbLine
 10
300.0586581830318
 20
25.25811031292727
 30
0.0
 11
300.0586581830318
 21
25.34268740709015
 31
0.0
  0
LINE
  5
2DC
330
1F
100
AcDbEntity
  8
レイヤー 1
 62
     7
370
    13
100
AcDbLine
 10
300.0586581830318
 20
25.34268740709015
 30
0.0
 11
300.1010328575003
 21
25.4274367560273
 31
0.0
  0
LINE
  5
2DD
330
1F
100
AcDbEntity
  8
レイヤー 1
 62
     7
370
    13
100
AcDbLine
 10
300.1010328575003
 20
25.4274367560273
 30
0.0
 11
300.1010328575003
 21
25.51201385019019
 31
0.0
  0
LINE
  5
2DE
330
1F
100
AcDbEntity
  8
レイヤー 1
 62
     7
370
    13
100
AcDbLine
 10
31.36894335220072
 20
85.87938850957752
 30
0.0
 11
300.2278123713576
 21
26.35881832046459
 31
0.0
  0
LINE
  5
2DF
330
1F
100
AcDbEntity
  8
レイヤー 1
 62
     7
370
    13
100
AcDbLine
 10
300.1010328575003
 20
25.51201385019019
 30
0.0
 11
300.2278123713576
 21
26.35881832046459
 31
0.0
  0
LINE
  5
2E0
330
1F
100
AcDbEntity
  8
レイヤー 1
 62
     7
370
    13
100
AcDbLine
 10
300.2278123713576
 20
26.35881832046459
 30
0.0
 11
300.2278123713576
 21
26.44339541462747
 31
0.0
  0
LINE
  5
2E1
330
1F
100
AcDbEntity
  8
レイヤー 1
 62
     7
370
    13
100
AcDbLine
 10
300.2278123713576
 20
26.44339541462747
 30
0.0
 11
300.2278123713576
 21
26.52814476356463
 31
0.0
  0
LINE
  5
2E2
330
1F
100
AcDbEntity
  8
レイヤー 1
 62
     7
370
    13
100
AcDbLine
 10
300.2278123713576
 20
26.52814476356463
 30
0.0
 11
300.2278123713576
 21
26.65509653219607
 31
0.0
  0
LINE
  5
2E3
330
1F
100
AcDbEntity
  8
レイヤー 1
 62
     7
370
    13
100
AcDbLine
 10
300.2278123713576
 20
26.65509653219607
 30
0.0
 11
300.1854376968889
 21
26.69747120666466
 31
0.0
  0
LINE
  5
2E4
330
1F
100
AcDbEntity
  8
レイヤー 1
 62
     7
370
    13
100
AcDbLine
 10
300.1854376968889
 20
26.69747120666466
 30
0.0
 11
300.1854376968889
 21
26.78204830082754
 31
0.0
  0
LINE
  5
2E5
330
1F
100
AcDbEntity
  8
レイヤー 1
 62
     7
370
    13
100
AcDbLine
 10
300.1854376968889
 20
26.78204830082754
 30
0.0
 11
300.1434075319689
 21
26.8244229752961
 31
0.0
  0
LINE
  5
2E6
330
1F
100
AcDbEntity
  8
レイヤー 1
 62
     7
370
    13
100
AcDbLine
 10
300.1434075319689
 20
26.8244229752961
 30
0.0
 11
300.1010328575003
 21
26.8244229752961
 31
0.0
  0
LINE
  5
2E7
330
1F
100
AcDbEntity
  8
レイヤー 1
 62
     7
370
    13
100
AcDbLine
 10
300.1010328575003
 20
26.8244229752961
 30
0.0
 11
300.0586581830318
 21
26.86679764976469
 31
0.0
  0
LINE
  5
2E8
330
1F
100
AcDbEntity
  8
レイヤー 1
 62
     7
370
    13
100
AcDbLine
 10
35.30599847274422
 20
93.54179763309594
 30
0.0
 11
35.34820089243854
 21
93.54179763309594
 31
0.0
  0
LINE
  5
2E9
330
1F
100
AcDbEntity
  8
レイヤー 1
 62
     7
370
    13
100
AcDbLine
 10
35.34820089243854
 20
93.41484586446447
 30
0.0
 11
35.26362379827566
 21
93.41484586446447
 31
0.0
  0
LINE
  5
2EA
330
1F
100
AcDbEntity
  8
レイヤー 1
 62
     7
370
    13
100
AcDbLine
 10
29.20990201159464
 20
86.8953471681777
 30
0.0
 11
18.88064447294431
 21
86.3451654191833
 31
0.0
  0
LINE
  5
2EB
330
1F
100
AcDbEntity
  8
レイヤー 1
 62
     7
370
    13
100
AcDbLine
 10
26.37355489858845
 20
92.99144362932728
 30
0.0
 11
26.33135247889413
 21
92.99144362932728
 31
0.0
  0
LINE
  5
2EC
330
1F
100
AcDbEntity
  8
レイヤー 1
 62
     7
370
    13
100
AcDbLine
 10
301.4556444023005
 20
26.52814476356463
 30
0.0
 11
301.4980190767692
 21
26.52814476356463
 31
0.0
  0
LINE
  5
2ED
330
1F
100
AcDbEntity
  8
レイヤー 1
 62
     7
370
    13
100
AcDbLine
 10
267.7161017675063
 20
37.45013098045217
 30
0.0
 11
267.7581319324263
 21
37.40775630598361
 31
0.0
  0
LINE
  5
2EE
330
1F
100
AcDbEntity
  8
レイヤー 1
 62
     7
370
    13
100
AcDbLine
 10
267.7581319324263
 20
37.40775630598361
 30
0.0
 11
267.7581319324263
 21
37.36538163151505
 31
0.0
  0
LINE
  5
2EF
330
1F
100
AcDbEntity
  8
レイヤー 1
 62
     7
370
    13
100
AcDbLine
 10
267.7581319324263
 20
37.36538163151505
 30
0.0
 11
267.7581319324263
 21
37.32317921182073
 31
0.0
  0
LINE
  5
2F0
330
1F
100
AcDbEntity
  8
レイヤー 1
 62
     7
370
    13
100
AcDbLine
 10
267.7581319324263
 20
37.32317921182073
 30
0.0
 11
267.7161017675063
 21
37.32317921182073
 31
0.0
  0
POINT
  5
2F1
330
1F
100
AcDbEntity
  8
レイヤー 1
 62
     7
370
    13
100
AcDbPoint
 10
266.4882697365632
 20
36.64570118464636
 30
0.0
  0
LINE
  5
2F2
330
1F
100
AcDbEntity
  8
レイヤー 1
 62
     7
370
    13
100
AcDbLine
 10
266.4882697365632
 20
36.64570118464636
 30
0.0
 11
266.4458950620947
 21
36.64570118464636
 31
0.0
  0
LINE
  5
2F3
330
1F
100
AcDbEntity
  8
レイヤー 1
 62
     7
370
    13
100
AcDbLine
 10
266.4458950620947
 20
36.64570118464636
 30
0.0
 11
266.4035203876261
 21
36.64570118464636
 31
0.0
  0
LINE
  5
2F4
330
1F
100
AcDbEntity
  8
レイヤー 1
 62
     7
370
    13
100
AcDbLine
 10
266.4035203876261
 20
36.64570118464636
 30
0.0
 11
266.4035203876261
 21
36.68807585911492
 31
0.0
  0
LINE
  5
2F5
330
1F
100
AcDbEntity
  8
レイヤー 1
 62
     7
370
    13
100
AcDbLine
 10
30.52231113670055
 20
86.51431960750907
 30
0.0
 11
30.60688823086346
 21
86.51431960750907
 31
0.0
  0
LINE
  5
2F6
330
1F
100
AcDbEntity
  8
レイヤー 1
 62
     7
370
    13
100
AcDbLine
 10
17.73756179093841
 20
86.21804139577756
 30
0.0
 11
18.92301914741289
 21
85.96413785851465
 31
0.0
  0
LINE
  5
2F7
330
1F
100
AcDbEntity
  8
レイヤー 1
 62
     7
370
    13
100
AcDbLine
 10
17.69518711646984
 20
86.3873678388776
 30
0.0
 11
17.90688823403845
 21
86.3451654191833
 31
0.0
  0
LINE
  5
2F8
330
1F
100
AcDbEntity
  8
レイヤー 1
 62
     7
370
    13
100
AcDbLine
 10
14.64731114066932
 20
92.22938850799002
 30
0.0
 11
14.7318882348322
 21
92.22938850799002
 31
0.0
  0
POINT
  5
2F9
330
1F
100
AcDbEntity
  8
レイヤー 1
 62
     7
370
    13
100
AcDbPoint
 10
69.97692267197581
 20
80.16431960909657
 30
0.0
  0
POINT
  5
2FA
330
1F
100
AcDbEntity
  8
レイヤー 1
 62
     7
370
    13
100
AcDbPoint
 10
71.16220777367602
 20
80.84179763627094
 30
0.0
  0
POINT
  5
2FB
330
1F
100
AcDbEntity
  8
レイヤー 1
 62
     7
370
    13
100
AcDbPoint
 10
71.16220777367602
 20
80.88400005596526
 30
0.0
  0
LINE
  5
2FC
330
1F
100
AcDbEntity
  8
レイヤー 1
 62
     7
370
    13
100
AcDbLine
 10
69.89234557781293
 20
80.20669428356513
 30
0.0
 11
69.89234557781293
 21
80.16431960909657
 31
0.0
  0
LINE
  5
2FD
330
1F
100
AcDbEntity
  8
レイヤー 1
 62
     7
370
    13
100
AcDbLine
 10
14.64731114066932
 20
92.44108962555862
 30
0.0
 11
14.68968581513789
 21
92.39871495109006
 31
0.0
  0
POINT
  5
2FE
330
1F
100
AcDbEntity
  8
レイヤー 1
 62
     7
370
    13
100
AcDbPoint
 10
266.5306444110319
 20
36.64570118464636
 30
0.0
  0
POINT
  5
2FF
330
1F
100
AcDbEntity
  8
レイヤー 1
 62
     7
370
    13
100
AcDbPoint
 10
267.7161017675063
 20
37.28080453735217
 30
0.0
  0
LINE
  5
300
330
1F
100
AcDbEntity
  8
レイヤー 1
 62
     7
370
    13
100
AcDbLine
 10
267.7161017675063
 20
37.32317921182073
 30
0.0
 11
267.7161017675063
 21
37.36538163151505
 31
0.0
  0
LINE
  5
301
330
1F
100
AcDbEntity
  8
レイヤー 1
 62
     7
370
    13
100
AcDbLine
 10
266.4458950620947
 20
36.64570118464636
 30
0.0
 11
266.4458950620947
 21
36.60349876495204
 31
0.0
  0
LINE
  5
302
330
1F
100
AcDbEntity
  8
レイヤー 1
 62
     7
370
    13
100
AcDbLine
 10
21.16663758218185
 20
82.70438851037127
 30
0.0
 11
21.20901225665041
 21
82.70438851037127
 31
0.0
  0
LINE
  5
303
330
1F
100
AcDbEntity
  8
レイヤー 1
 62
     7
370
    13
100
AcDbLine
 10
21.20901225665041
 20
82.70438851037127
 30
0.0
 11
21.84394335458197
 21
82.45048497310836
 31
0.0
  0
LINE
  5
304
330
1F
100
AcDbEntity
  8
レイヤー 1
 62
     7
370
    13
100
AcDbLine
 10
29.50635247810038
 20
86.72602072507766
 30
0.0
 11
29.5485548977947
 21
86.72602072507766
 31
0.0
  0
LINE
  5
305
330
1F
100
AcDbEntity
  8
レイヤー 1
 62
     7
370
    13
100
AcDbLine
 10
29.5485548977947
 20
86.72602072507766
 30
0.0
 11
29.59092957226326
 21
86.72602072507766
 31
0.0
  0
LINE
  5
306
330
1F
100
AcDbEntity
  8
レイヤー 1
 62
     7
370
    13
100
AcDbLine
 10
29.59092957226326
 20
86.72602072507766
 30
0.0
 11
29.63330424673185
 21
86.68381830538334
 31
0.0
  0
LINE
  5
307
330
1F
100
AcDbEntity
  8
レイヤー 1
 62
     7
370
    13
100
AcDbLine
 10
29.63330424673185
 20
86.68381830538334
 30
0.0
 11
29.63330424673185
 21
86.59906895644622
 31
0.0
  0
LINE
  5
308
330
1F
100
AcDbEntity
  8
レイヤー 1
 62
     7
370
    13
100
AcDbLine
 10
29.63330424673185
 20
86.59906895644622
 30
0.0
 11
29.67567892120042
 21
86.51431960750907
 31
0.0
  0
LINE
  5
309
330
1F
100
AcDbEntity
  8
レイヤー 1
 62
     7
370
    13
100
AcDbLine
 10
29.67567892120042
 20
86.51431960750907
 30
0.0
 11
29.67567892120042
 21
86.47211718781475
 31
0.0
  0
LINE
  5
30A
330
1F
100
AcDbEntity
  8
レイヤー 1
 62
     7
370
    13
100
AcDbLine
 10
29.67567892120042
 20
86.47211718781475
 30
0.0
 11
29.67567892120042
 21
86.3451654191833
 31
0.0
  0
LINE
  5
30B
330
1F
100
AcDbEntity
  8
レイヤー 1
 62
     7
370
    13
100
AcDbLine
 10
29.67567892120042
 20
86.3451654191833
 30
0.0
 11
29.67567892120042
 21
86.26041607024615
 31
0.0
  0
POINT
  5
30C
330
1F
100
AcDbEntity
  8
レイヤー 1
 62
     7
370
    13
100
AcDbPoint
 10
29.46397780363182
 20
86.72602072507766
 30
0.0
  0
LINE
  5
30D
330
1F
100
AcDbEntity
  8
レイヤー 1
 62
     7
370
    13
100
AcDbLine
 10
29.46397780363182
 20
86.72602072507766
 30
0.0
 11
29.42160312916323
 21
86.72602072507766
 31
0.0
  0
LINE
  5
30E
330
1F
100
AcDbEntity
  8
レイヤー 1
 62
     7
370
    13
100
AcDbLine
 10
29.42160312916323
 20
86.72602072507766
 30
0.0
 11
29.42160312916323
 21
86.68381830538334
 31
0.0
  0
LINE
  5
30F
330
1F
100
AcDbEntity
  8
レイヤー 1
 62
     7
370
    13
100
AcDbLine
 10
19.21929735914438
 20
86.175666721309
 30
0.0
 11
19.1769226846758
 21
86.175666721309
 31
0.0
  0
LINE
  5
310
330
1F
100
AcDbEntity
  8
レイヤー 1
 62
     7
370
    13
100
AcDbLine
 10
19.1769226846758
 20
86.175666721309
 30
0.0
 11
19.13454801020723
 21
86.13346430161468
 31
0.0
  0
LINE
  5
311
330
1F
100
AcDbEntity
  8
レイヤー 1
 62
     7
370
    13
100
AcDbLine
 10
30.0565342270948
 20
86.64144363091478
 30
0.0
 11
30.0565342270948
 21
86.59906895644622
 31
0.0
  0
LINE
  5
312
330
1F
100
AcDbEntity
  8
レイヤー 1
 62
     7
370
    13
100
AcDbLine
 10
29.97195713293189
 20
86.64144363091478
 30
0.0
 11
29.97195713293189
 21
86.59906895644622
 31
0.0
  0
LINE
  5
313
330
1F
100
AcDbEntity
  8
レイヤー 1
 62
     7
370
    13
100
AcDbLine
 10
23.96061002071946
 20
90.8324022887212
 30
0.0
 11
23.96061002071946
 21
90.79002761425264
 31
0.0
  0
LINE
  5
314
330
1F
100
AcDbEntity
  8
レイヤー 1
 62
     7
370
    13
100
AcDbLine
 10
301.8790466374378
 20
25.97779075979597
 30
0.0
 11
301.9210768023578
 21
26.06236785395885
 31
0.0
  0
LINE
  5
315
330
1F
100
AcDbEntity
  8
レイヤー 1
 62
     7
370
    13
100
AcDbLine
 10
301.9210768023578
 20
26.06236785395885
 30
0.0
 11
301.9210768023578
 21
26.147117202896
 31
0.0
  0
LINE
  5
316
330
1F
100
AcDbEntity
  8
レイヤー 1
 62
     7
370
    13
100
AcDbLine
 10
301.9210768023578
 20
26.147117202896
 30
0.0
 11
301.8790466374378
 21
26.23169429705888
 31
0.0
  0
LINE
  5
317
330
1F
100
AcDbEntity
  8
レイヤー 1
 62
     7
370
    13
100
AcDbLine
 10
301.8790466374378
 20
26.23169429705888
 30
0.0
 11
301.8790466374378
 21
26.31644364599603
 31
0.0
  0
LINE
  5
318
330
1F
100
AcDbEntity
  8
レイヤー 1
 62
     7
370
    13
100
AcDbLine
 10
301.8790466374378
 20
26.31644364599603
 30
0.0
 11
301.8366719629693
 21
26.35881832046459
 31
0.0
  0
LINE
  5
319
330
1F
100
AcDbEntity
  8
レイヤー 1
 62
     7
370
    13
100
AcDbLine
 10
301.8366719629693
 20
26.35881832046459
 30
0.0
 11
301.7942972885006
 21
26.40102074015891
 31
0.0
  0
LINE
  5
31A
330
1F
100
AcDbEntity
  8
レイヤー 1
 62
     7
370
    13
100
AcDbLine
 10
301.7942972885006
 20
26.40102074015891
 30
0.0
 11
301.7519226140321
 21
26.44339541462747
 31
0.0
  0
POINT
  5
31B
330
1F
100
AcDbEntity
  8
レイヤー 1
 62
     7
370
    13
100
AcDbPoint
 10
301.7942972885006
 20
25.13098628952156
 30
0.0
  0
POINT
  5
31C
330
1F
100
AcDbEntity
  8
レイヤー 1
 62
     7
370
    13
100
AcDbPoint
 10
301.9210768023578
 20
25.97779075979597
 30
0.0
  0
LINE
  5
31D
330
1F
100
AcDbEntity
  8
レイヤー 1
 62
     7
370
    13
100
AcDbLine
 10
301.9210768023578
 20
25.97779075979597
 30
0.0
 11
301.8790466374378
 21
25.97779075979597
 31
0.0
  0
LINE
  5
31E
330
1F
100
AcDbEntity
  8
レイヤー 1
 62
     7
370
    13
100
AcDbLine
 10
31.03029046600065
 20
84.60935405894017
 30
0.0
 11
299.8891594851575
 21
25.04640919535868
 31
0.0
  0
MTEXT
  5
320
330
1F
100
AcDbEntity
  8
0
370
    18
100
AcDbMText
 10
21.5
 20
227.8
 30
0.0
 40
15.3901299166255
 41
230.4642365887207
 71
     1
 72
     1
  1
{\fHGPｺﾞｼｯｸM|b0|i0;OPI-12V15-PMH3・N\POPI-12V15-PMH2・N\POPI-12V15-PM2・N\POPI-12V15-PM1・N}
  7
HGPｺﾞｼｯｸM
 73
     1
 44
0.7500000000000001
  0
VIEWPORT
  5
321
102
{ACAD_XDICTIONARY
360
32B
102
}
330
1B
100
AcDbEntity
 67
     1
  8
0
100
AcDbViewport
 10
0.0
 20
0.0
 30
0.0
 40
436.05
 41
323.34
 68
     1
 69
     1
 12
206.25
 22
138.5
 13
0.0
 23
0.0
 14
10.0
 24
10.0
 15
10.0
 25
10.0
 16
0.0
 26
0.0
 36
1.0
 17
0.0
 27
0.0
 37
0.0
 42
50.0
 43
0.0
 44
0.0
 45
323.34
 50
0.0
 51
0.0
 72
   100
 90
   557152
  1

281
     0
 71
     1
 74
     0
110
0.0
120
0.0
130
0.0
111
1.0
121
0.0
131
0.0
112
0.0
122
1.0
132
0.0
 79
     0
146
0.0
  0
ENDSEC
  0
SECTION
  2
OBJECTS
  0
DICTIONARY
  5
C
330
0
100
AcDbDictionary
281
     1
  3
ACAD_GROUP
350
D
  3
ACAD_IMAGE_VARS
350
6F
  3
ACAD_LAYOUT
350
1A
  3
ACAD_MATERIAL
350
43
  3
ACAD_MLEADERSTYLE
350
6B
  3
ACAD_MLINESTYLE
350
17
  3
ACAD_PLOTSETTINGS
350
19
  3
ACAD_PLOTSTYLENAME
350
E
  3
ACAD_SCALELIST
350
47
  3
ACAD_TABLESTYLE
350
69
  3
ACAD_VISUALSTYLE
350
2A
  3
AcDbVariableDictionary
350
323
  3
DWGPROPS
350
32A
  0
DICTIONARY
  5
32D
330
8
100
AcDbDictionary
280
     1
281
     1
  3
ACAD_XREC_ROUNDTRIP
360
32E
  0
DICTIONARY
  5
32B
330
321
100
AcDbDictionary
280
     1
281
     1
  3
ACAD_XREC_ROUNDTRIP
360
32C
  0
DICTIONARY
  5
D
102
{ACAD_REACTORS
330
C
102
}
330
C
100
AcDbDictionary
281
     1
  0
RASTERVARIABLES
  5
6F
102
{ACAD_REACTORS
330
C
102
}
330
C
100
AcDbRasterVariables
 90
        0
 70
     0
 71
     1
 72
     0
  0
DICTIONARY
  5
1A
102
{ACAD_REACTORS
330
C
102
}
330
C
100
AcDbDictionary
281
     1
  3
Model
350
22
  3
レイアウト1
350
1E
  0
DICTIONARY
  5
43
102
{ACAD_REACTORS
330
C
102
}
330
C
100
AcDbDictionary
281
     1
  3
ByBlock
350
45
  3
ByLayer
350
44
  3
Global
350
46
  0
DICTIONARY
  5
6B
102
{ACAD_REACTORS
330
C
102
}
330
C
100
AcDbDictionary
281
     1
  3
Standard
350
6C
  0
DICTIONARY
  5
17
102
{ACAD_REACTORS
330
C
102
}
330
C
100
AcDbDictionary
281
     1
  3
Standard
350
18
  0
DICTIONARY
  5
19
102
{ACAD_REACTORS
330
C
102
}
330
C
100
AcDbDictionary
281
     1
  0
ACDBDICTIONARYWDFLT
  5
E
102
{ACAD_REACTORS
330
C
102
}
330
C
100
AcDbDictionary
281
     1
  3
Normal
350
F
100
AcDbDictionaryWithDefault
340
F
  0
DICTIONARY
  5
47
102
{ACAD_REACTORS
330
C
102
}
330
C
100
AcDbDictionary
281
     1
  3
A0
350
48
  3
A1
350
49
  3
A2
350
4A
  3
A3
350
4B
  3
A4
350
4C
  3
A5
350
4D
  3
A6
350
4E
  3
A7
350
4F
  3
A8
350
50
  3
A9
350
51
  3
B0
350
52
  3
B1
350
53
  3
B2
350
54
  3
B3
350
55
  3
B4
350
56
  3
B5
350
57
  3
B6
350
58
  3
B7
350
59
  3
B8
350
5A
  3
B9
350
5B
  3
C0
350
5C
  3
C1
350
5D
  3
C2
350
5E
  3
C3
350
5F
  3
C4
350
60
  3
C5
350
61
  3
C6
350
62
  3
C7
350
63
  3
C8
350
64
  3
C9
350
65
  3
D0
350
66
  3
D1
350
67
  3
D2
350
68
  0
DICTIONARY
  5
69
102
{ACAD_REACTORS
330
C
102
}
330
C
100
AcDbDictionary
281
     1
  3
Standard
350
6A
  0
DICTIONARY
  5
2A
102
{ACAD_REACTORS
330
C
102
}
330
C
100
AcDbDictionary
281
     1
  3
2dWireframe
350
2F
  3
Basic
350
32
  3
Brighten
350
36
  3
ColorChange
350
3A
  3
Conceptual
350
34
  3
Dim
350
35
  3
EdgeColorOff
350
3D
  3
Facepattern
350
39
  3
Flat
350
2B
  3
FlatWithEdges
350
2C
  3
Gouraud
350
2D
  3
GouraudWithEdges
350
2E
  3
Hidden
350
31
  3
JitterOff
350
3B
  3
Linepattern
350
38
  3
OverhangOff
350
3C
  3
Realistic
350
33
  3
Shaded
350
42
  3
Shaded with edges
350
41
  3
Shades of Gray
350
3E
  3
Sketchy
350
3F
  3
Thicken
350
37
  3
Wireframe
350
30
  3
X-Ray
350
40
  0
DICTIONARY
  5
323
102
{ACAD_REACTORS
330
C
102
}
330
C
100
AcDbDictionary
281
     1
  3
CANNOSCALE
350
32F
  3
CMLEADERSTYLE
350
325
  3
CTABLESTYLE
350
324
  3
DIMASSOC
350
328
  3
HIDETEXT
350
329
  3
MSLTSCALE
350
330
  0
XRECORD
  5
32A
102
{ACAD_REACTORS
330
C
102
}
330
C
100
AcDbXrecord
280
     1
  1
DWGPROPS COOKIE
  2

  3

  4

  6

  7

  8
Hirofumi.Sakurai
  9

300
=
301
=
302
=
303
=
304
=
305
=
306
=
307
=
308
=
309
=
 40
0.0
 41
2459135.232145625
 42
2459135.23214735
  1

 90
        0
  0
XRECORD
  5
32E
102
{ACAD_REACTORS
330
32D
102
}
330
32D
100
AcDbXrecord
280
     1
102
VTR_0.000_0.000_1.000_1.000_VISUALSTYLE
340
2F
102
VTR_0.000_0.000_1.000_1.000_GRIDDISPLAY
 70
     3
102
VTR_0.000_0.000_1.000_1.000_GRIDMAJOR
 70
     5
102
VTR_0.000_0.000_1.000_1.000_DEFAULTLIGHTING
280
     1
102
VTR_0.000_0.000_1.000_1.000_DEFAULTLIGHTINGTYPE
 70
     1
102
VTR_0.000_0.000_1.000_1.000_BRIGHTNESS
141
0.0
102
VTR_0.000_0.000_1.000_1.000_CONTRAST
142
0.0
  0
XRECORD
  5
32C
102
{ACAD_REACTORS
330
32B
102
}
330
32B
100
AcDbXrecord
280
     1
102
VISUALSTYLE
340
2F
102
GRIDDISPLAY
 70
     2
102
GRIDMAJOR
 70
     5
102
DEFAULTLIGHTING
280
     1
102
DEFAULTLIGHTINGTYPE
 70
     1
102
BRIGHTNESS
141
0.0
102
CONTRAST
142
0.0
  0
LAYOUT
  5
22
102
{ACAD_REACTORS
330
1A
102
}
330
1A
100
AcDbPlotSettings
  1

  2
none_device
  4
Letter_(8.50_x_11.00_Inches)
  6

 40
6.35
 41
6.35
 42
6.35000508
 43
6.35000508
 44
215.9
 45
279.4
 46
0.0
 47
0.0
 48
0.0
 49
0.0
140
0.0
141
0.0
142
1.0
143
1.0
 70
  1712
 72
     0
 73
     0
 74
     0
  7

 75
     0
147
1.0
148
0.0
149
0.0
100
AcDbLayout
  1
Model
 70
     1
 71
     0
 10
18.20320223966521
 20
27.33926149519053
 11
385.709624402563
 21
284.75
 12
0.0
 22
0.0
 32
0.0
 14
18.20320223966521
 24
27.33926149519053
 34
0.0
 15
385.709624402563
 25
284.75
 35
0.0
146
0.0
 13
0.0
 23
0.0
 33
0.0
 16
1.0
 26
0.0
 36
0.0
 17
0.0
 27
1.0
 37
0.0
 76
     0
330
1F
331
29
  0
LAYOUT
  5
1E
102
{ACAD_REACTORS
330
1A
102
}
330
1A
100
AcDbPlotSettings
  1

  2
none_device
  4
ISO_A3_(420.00_x_297.00_MM)
  6

 40
7.5
 41
20.0
 42
7.5
 43
20.0
 44
420.0
 45
297.0
 46
-7.5
 47
-20.0
 48
0.0
 49
0.0
140
0.0
141
0.0
142
1.0
143
1.0
 70
   688
 72
     1
 73
     0
 74
     5
  7

 75
    16
147
1.0
148
0.0
149
0.0
100
AcDbLayout
  1
レイアウト1
 70
     0
 71
     1
 10
-7.5
 20
-20.0
 11
420.0
 21
297.0
 12
0.0
 22
0.0
 32
0.0
 14
-9.375
 24
-25.0
 34
0.0
 15
525.0
 25
371.25
 35
0.0
146
0.0
 13
0.0
 23
0.0
 33
0.0
 16
1.0
 26
0.0
 36
0.0
 17
0.0
 27
1.0
 37
0.0
 76
     0
330
1B
331
321
  0
MATERIAL
  5
45
102
{ACAD_REACTORS
330
43
102
}
102
{ACAD_XDICTIONARY
360
363
102
}
330
43
100
AcDbMaterial
  1
ByBlock
  0
MATERIAL
  5
44
102
{ACAD_REACTORS
330
43
102
}
102
{ACAD_XDICTIONARY
360
361
102
}
330
43
100
AcDbMaterial
  1
ByLayer
  0
MATERIAL
  5
46
102
{ACAD_REACTORS
330
43
102
}
102
{ACAD_XDICTIONARY
360
365
102
}
330
43
100
AcDbMaterial
  1
Global
  0
MLEADERSTYLE
  5
6C
102
{ACAD_REACTORS
330
6B
102
}
102
{ACAD_XDICTIONARY
360
368
102
}
330
6B
100
AcDbMLeaderStyle
170
     2
171
     1
172
     0
 90
        2
 40
0.0
 41
0.0
173
     1
 91
-1056964608
340
14
 92
       -2
290
     1
 42
0.09
291
     1
 43
0.36
  3
Standard
341
0
 44
0.18
300

342
11
174
     1
178
     6
175
     1
176
     0
 93
-1056964608
 45
0.18
292
     0
297
     0
 46
0.18
343
0
 94
-1056964608
 47
1.0
 49
1.0
140
1.0
293
     1
141
0.0
294
     1
177
     0
142
1.0
295
     0
296
     0
143
0.125
1001
ACAD_MLEADERVER
1070
     2
  0
MLINESTYLE
  5
18
102
{ACAD_REACTORS
330
17
102
}
330
17
100
AcDbMlineStyle
  2
Standard
 70
     0
  3

 62
   256
 51
90.0
 52
90.0
 71
     2
 49
0.5
 62
   256
  6
BYLAYER
 49
-0.5
 62
   256
  6
BYLAYER
  0
ACDBPLACEHOLDER
  5
F
102
{ACAD_REACTORS
330
E
102
}
330
E
  0
SCALE
  5
48
102
{ACAD_REACTORS
330
47
102
}
330
47
100
AcDbScale
 70
     0
300
1:1
140
1.0
141
1.0
290
     1
  0
SCALE
  5
49
102
{ACAD_REACTORS
330
47
102
}
330
47
100
AcDbScale
 70
     0
300
1:2
140
1.0
141
2.0
290
     0
  0
SCALE
  5
4A
102
{ACAD_REACTORS
330
47
102
}
330
47
100
AcDbScale
 70
     0
300
1:4
140
1.0
141
4.0
290
     0
  0
SCALE
  5
4B
102
{ACAD_REACTORS
330
47
102
}
330
47
100
AcDbScale
 70
     0
300
1:5
140
1.0
141
5.0
290
     0
  0
SCALE
  5
4C
102
{ACAD_REACTORS
330
47
102
}
330
47
100
AcDbScale
 70
     0
300
1:8
140
1.0
141
8.0
290
     0
  0
SCALE
  5
4D
102
{ACAD_REACTORS
330
47
102
}
330
47
100
AcDbScale
 70
     0
300
1:10
140
1.0
141
10.0
290
     0
  0
SCALE
  5
4E
102
{ACAD_REACTORS
330
47
102
}
330
47
100
AcDbScale
 70
     0
300
1:16
140
1.0
141
16.0
290
     0
  0
SCALE
  5
4F
102
{ACAD_REACTORS
330
47
102
}
330
47
100
AcDbScale
 70
     0
300
1:20
140
1.0
141
20.0
290
     0
  0
SCALE
  5
50
102
{ACAD_REACTORS
330
47
102
}
330
47
100
AcDbScale
 70
     0
300
1:30
140
1.0
141
30.0
290
     0
  0
SCALE
  5
51
102
{ACAD_REACTORS
330
47
102
}
330
47
100
AcDbScale
 70
     0
300
1:40
140
1.0
141
40.0
290
     0
  0
SCALE
  5
52
102
{ACAD_REACTORS
330
47
102
}
330
47
100
AcDbScale
 70
     0
300
1:50
140
1.0
141
50.0
290
     0
  0
SCALE
  5
53
102
{ACAD_REACTORS
330
47
102
}
330
47
100
AcDbScale
 70
     0
300
1:100
140
1.0
141
100.0
290
     0
  0
SCALE
  5
54
102
{ACAD_REACTORS
330
47
102
}
330
47
100
AcDbScale
 70
     0
300
2:1
140
2.0
141
1.0
290
     0
  0
SCALE
  5
55
102
{ACAD_REACTORS
330
47
102
}
330
47
100
AcDbScale
 70
     0
300
4:1
140
4.0
141
1.0
290
     0
  0
SCALE
  5
56
102
{ACAD_REACTORS
330
47
102
}
330
47
100
AcDbScale
 70
     0
300
8:1
140
8.0
141
1.0
290
     0
  0
SCALE
  5
57
102
{ACAD_REACTORS
330
47
102
}
330
47
100
AcDbScale
 70
     0
300
10:1
140
10.0
141
1.0
290
     0
  0
SCALE
  5
58
102
{ACAD_REACTORS
330
47
102
}
330
47
100
AcDbScale
 70
     0
300
100:1
140
100.0
141
1.0
290
     0
  0
SCALE
  5
59
102
{ACAD_REACTORS
330
47
102
}
330
47
100
AcDbScale
 70
     0
300
1/128" = 1'-0"
140
0.0078125
141
12.0
290
     0
  0
SCALE
  5
5A
102
{ACAD_REACTORS
330
47
102
}
330
47
100
AcDbScale
 70
     0
300
1/64" = 1'-0"
140
0.015625
141
12.0
290
     0
  0
SCALE
  5
5B
102
{ACAD_REACTORS
330
47
102
}
330
47
100
AcDbScale
 70
     0
300
1/32" = 1'-0"
140
0.03125
141
12.0
290
     0
  0
SCALE
  5
5C
102
{ACAD_REACTORS
330
47
102
}
330
47
100
AcDbScale
 70
     0
300
1/16" = 1'-0"
140
0.0625
141
12.0
290
     0
  0
SCALE
  5
5D
102
{ACAD_REACTORS
330
47
102
}
330
47
100
AcDbScale
 70
     0
300
3/32" = 1'-0"
140
0.09375
141
12.0
290
     0
  0
SCALE
  5
5E
102
{ACAD_REACTORS
330
47
102
}
330
47
100
AcDbScale
 70
     0
300
1/8" = 1'-0"
140
0.125
141
12.0
290
     0
  0
SCALE
  5
5F
102
{ACAD_REACTORS
330
47
102
}
330
47
100
AcDbScale
 70
     0
300
3/16" = 1'-0"
140
0.1875
141
12.0
290
     0
  0
SCALE
  5
60
102
{ACAD_REACTORS
330
47
102
}
330
47
100
AcDbScale
 70
     0
300
1/4" = 1'-0"
140
0.25
141
12.0
290
     0
  0
SCALE
  5
61
102
{ACAD_REACTORS
330
47
102
}
330
47
100
AcDbScale
 70
     0
300
3/8" = 1'-0"
140
0.375
141
12.0
290
     0
  0
SCALE
  5
62
102
{ACAD_REACTORS
330
47
102
}
330
47
100
AcDbScale
 70
     0
300
1/2" = 1'-0"
140
0.5
141
12.0
290
     0
  0
SCALE
  5
63
102
{ACAD_REACTORS
330
47
102
}
330
47
100
AcDbScale
 70
     0
300
3/4" = 1'-0"
140
0.75
141
12.0
290
     0
  0
SCALE
  5
64
102
{ACAD_REACTORS
330
47
102
}
330
47
100
AcDbScale
 70
     0
300
1" = 1'-0"
140
1.0
141
12.0
290
     0
  0
SCALE
  5
65
102
{ACAD_REACTORS
330
47
102
}
330
47
100
AcDbScale
 70
     0
300
1-1/2" = 1'-0"
140
1.5
141
12.0
290
     0
  0
SCALE
  5
66
102
{ACAD_REACTORS
330
47
102
}
330
47
100
AcDbScale
 70
     0
300
3" = 1'-0"
140
3.0
141
12.0
290
     0
  0
SCALE
  5
67
102
{ACAD_REACTORS
330
47
102
}
330
47
100
AcDbScale
 70
     0
300
6" = 1'-0"
140
6.0
141
12.0
290
     0
  0
SCALE
  5
68
102
{ACAD_REACTORS
330
47
102
}
330
47
100
AcDbScale
 70
     0
300
1'-0" = 1'-0"
140
12.0
141
12.0
290
     0
  0
TABLESTYLE
  5
6A
102
{ACAD_REACTORS
330
69
102
}
330
69
100
AcDbTableStyle
  3
Standard
 70
     0
 71
     0
 40
0.06
 41
0.06
280
     0
281
     0
  7
Standard
140
0.18
170
     2
 62
     0
 63
   257
283
     0
274
    -2
284
     1
 64
     0
275
    -2
285
     1
 65
     0
276
    -2
286
     1
 66
     0
277
    -2
287
     1
 67
     0
278
    -2
288
     1
 68
     0
279
    -2
289
     1
 69
     0
  7
Standard
140
0.25
170
     5
 62
     0
 63
   257
283
     0
274
    -2
284
     1
 64
     0
275
    -2
285
     1
 65
     0
276
    -2
286
     1
 66
     0
277
    -2
287
     1
 67
     0
278
    -2
288
     1
 68
     0
279
    -2
289
     1
 69
     0
  7
Standard
140
0.18
170
     5
 62
     0
 63
   257
283
     0
274
    -2
284
     1
 64
     0
275
    -2
285
     1
 65
     0
276
    -2
286
     1
 66
     0
277
    -2
287
     1
 67
     0
278
    -2
288
     1
 68
     0
279
    -2
289
     1
 69
     0
  0
VISUALSTYLE
  5
2F
102
{ACAD_REACTORS
330
2A
102
}
102
{ACAD_XDICTIONARY
360
339
102
}
330
2A
100
AcDbVisualStyle
  2
2dWireframe
 70
     4
 71
     0
 72
     2
 73
     0
 90
        0
 40
0.6
 41
30.0
 62
     5
 63
     7
 74
     1
 91
        4
 64
     7
 65
   257
 75
     1
175
     1
 42
1.0
 92
        0
 66
   257
 43
1.0
 76
     1
 77
     6
 78
     2
 67
     7
 79
     5
170
     0
171
     0
290
     0
174
     0
 93
        1
 44
0.0
173
     0
291
     0
 45
0.0
1001
ACAD
1000
AcDbSavedByObjectVersion
1070
     0
  0
VISUALSTYLE
  5
32
102
{ACAD_REACTORS
330
2A
102
}
102
{ACAD_XDICTIONARY
360
33F
102
}
330
2A
100
AcDbVisualStyle
  2
Basic
 70
     7
 71
     1
 72
     0
 73
     1
 90
        0
 40
0.6
 41
30.0
 62
     5
 63
     7
 74
     0
 91
        4
 64
     7
 65
   257
 75
     1
175
     1
 42
1.0
 92
        8
 66
     7
 43
1.0
 76
     1
 77
     6
 78
     2
 67
     7
 79
     5
170
     0
171
     0
290
     0
174
     0
 93
        1
 44
0.0
173
     0
291
     1
 45
0.0
1001
ACAD
1000
AcDbSavedByObjectVersion
1070
     0
  0
VISUALSTYLE
  5
36
102
{ACAD_REACTORS
330
2A
102
}
102
{ACAD_XDICTIONARY
360
347
102
}
330
2A
100
AcDbVisualStyle
  2
Brighten
 70
    12
 71
     2
 72
     2
 73
     0
 90
        0
 40
0.6
 41
30.0
 62
     5
 63
     7
 74
     1
 91
        4
 64
     7
 65
   257
 75
     1
175
     1
 42
1.0
 92
        8
 66
     7
 43
1.0
 76
     1
 77
     6
 78
     2
 67
     7
 79
     5
170
     0
171
     0
290
     0
174
     0
 93
        1
 44
50.0
173
     0
291
     1
 45
0.0
1001
ACAD
1000
AcDbSavedByObjectVersion
1070
     0
  0
VISUALSTYLE
  5
3A
102
{ACAD_REACTORS
330
2A
102
}
102
{ACAD_XDICTIONARY
360
34F
102
}
330
2A
100
AcDbVisualStyle
  2
ColorChange
 70
    16
 71
     2
 72
     2
 73
     3
 90
        0
 40
0.6
 41
30.0
 62
     5
 63
     8
 74
     1
 91
        4
 64
     7
 65
   257
 75
     1
175
     1
 42
1.0
 92
        8
 66
     8
 43
1.0
 76
     1
 77
     6
 78
     2
 67
     7
 79
     5
170
     0
171
     0
290
     0
174
     0
 93
        1
 44
0.0
173
     0
291
     1
 45
0.0
1001
ACAD
1000
AcDbSavedByObjectVersion
1070
     0
  0
VISUALSTYLE
  5
34
102
{ACAD_REACTORS
330
2A
102
}
102
{ACAD_XDICTIONARY
360
343
102
}
330
2A
100
AcDbVisualStyle
  2
Conceptual
 70
     9
 71
     3
 72
     2
 73
     0
 90
        0
 40
0.6
 41
30.0
 62
     5
 63
     7
 74
     2
 91
        2
 64
     7
 65
   257
 75
     1
175
     1
 42
179.0
 92
        8
 66
     7
 43
1.0
 76
     1
 77
     6
 78
     2
 67
     7
 79
     3
170
     0
171
     0
290
     0
174
     0
 93
        1
 44
0.0
173
     0
291
     0
 45
0.0
1001
ACAD
1000
AcDbSavedByObjectVersion
1070
     0
  0
VISUALSTYLE
  5
35
102
{ACAD_REACTORS
330
2A
102
}
102
{ACAD_XDICTIONARY
360
345
102
}
330
2A
100
AcDbVisualStyle
  2
Dim
 70
    11
 71
     2
 72
     2
 73
     0
 90
        0
 40
0.6
 41
30.0
 62
     5
 63
     7
 74
     1
 91
        4
 64
     7
 65
   257
 75
     1
175
     1
 42
1.0
 92
        8
 66
     7
 43
1.0
 76
     1
 77
     6
 78
     2
 67
     7
 79
     5
170
     0
171
     0
290
     0
174
     0
 93
        1
 44
-50.0
173
     0
291
     1
 45
0.0
1001
ACAD
1000
AcDbSavedByObjectVersion
1070
     0
  0
VISUALSTYLE
  5
3D
102
{ACAD_REACTORS
330
2A
102
}
102
{ACAD_XDICTIONARY
360
355
102
}
330
2A
100
AcDbVisualStyle
  2
EdgeColorOff
 70
    22
 71
     2
 72
     2
 73
     0
 90
        0
 40
0.6
 41
30.0
 62
     5
 63
     7
 74
     1
 91
        4
 64
     7
 65
   257
 75
     1
175
     1
 42
1.0
 92
        8
 66
     7
 43
1.0
 76
     1
 77
     6
 78
     2
 67
     7
 79
     5
170
     0
171
     0
290
     0
174
     0
 93
        1
 44
0.0
173
     0
291
     1
 45
0.0
1001
ACAD
1000
AcDbSavedByObjectVersion
1070
     0
  0
VISUALSTYLE
  5
39
102
{ACAD_REACTORS
330
2A
102
}
102
{ACAD_XDICTIONARY
360
34D
102
}
330
2A
100
AcDbVisualStyle
  2
Facepattern
 70
    15
 71
     2
 72
     2
 73
     0
 90
        0
 40
0.6
 41
30.0
 62
     5
 63
     7
 74
     1
 91
        4
 64
     7
 65
   257
 75
     1
175
     1
 42
1.0
 92
        8
 66
     7
 43
1.0
 76
     1
 77
     6
 78
     2
 67
     7
 79
     5
170
     0
171
     0
290
     0
174
     0
 93
        1
 44
0.0
173
     0
291
     1
 45
0.0
1001
ACAD
1000
AcDbSavedByObjectVersion
1070
     0
  0
VISUALSTYLE
  5
2B
102
{ACAD_REACTORS
330
2A
102
}
102
{ACAD_XDICTIONARY
360
331
102
}
330
2A
100
AcDbVisualStyle
  2
Flat
 70
     0
 71
     2
 72
     1
 73
     1
 90
        2
 40
0.6
 41
30.0
 62
     5
 63
     7
 74
     0
 91
        0
 64
     7
 65
   257
 75
     1
175
     1
 42
1.0
 92
        8
 66
     7
 43
1.0
 76
     1
 77
     6
 78
     2
 67
     7
 79
     5
170
     0
171
     0
290
     0
174
     0
 93
       13
 44
0.0
173
     0
291
     1
 45
0.0
1001
ACAD
1000
AcDbSavedByObjectVersion
1070
     0
  0
VISUALSTYLE
  5
2C
102
{ACAD_REACTORS
330
2A
102
}
102
{ACAD_XDICTIONARY
360
333
102
}
330
2A
100
AcDbVisualStyle
  2
FlatWithEdges
 70
     1
 71
     2
 72
     1
 73
     1
 90
        2
 40
0.6
 41
30.0
 62
     5
 63
     7
 74
     1
 91
        0
 64
     7
 65
   257
 75
     1
175
     1
 42
1.0
 92
        0
 66
   257
 43
1.0
 76
     1
 77
     6
 78
     2
 67
     7
 79
     5
170
     0
171
     0
290
     0
174
     0
 93
       13
 44
0.0
173
     0
291
     1
 45
0.0
1001
ACAD
1000
AcDbSavedByObjectVersion
1070
     0
  0
VISUALSTYLE
  5
2D
102
{ACAD_REACTORS
330
2A
102
}
102
{ACAD_XDICTIONARY
360
335
102
}
330
2A
100
AcDbVisualStyle
  2
Gouraud
 70
     2
 71
     2
 72
     2
 73
     1
 90
        2
 40
0.6
 41
30.0
 62
     5
 63
     7
 74
     0
 91
        0
 64
     7
 65
   257
 75
     1
175
     1
 42
1.0
 92
        0
 66
     7
 43
1.0
 76
     1
 77
     6
 78
     2
 67
     7
 79
     5
170
     0
171
     0
290
     0
174
     0
 93
       13
 44
0.0
173
     0
291
     1
 45
0.0
1001
ACAD
1000
AcDbSavedByObjectVersion
1070
     0
  0
VISUALSTYLE
  5
2E
102
{ACAD_REACTORS
330
2A
102
}
102
{ACAD_XDICTIONARY
360
337
102
}
330
2A
100
AcDbVisualStyle
  2
GouraudWithEdges
 70
     3
 71
     2
 72
     2
 73
     1
 90
        2
 40
0.6
 41
30.0
 62
     5
 63
     7
 74
     1
 91
        0
 64
     7
 65
   257
 75
     1
175
     1
 42
1.0
 92
        0
 66
   257
 43
1.0
 76
     1
 77
     6
 78
     2
 67
     7
 79
     5
170
     0
171
     0
290
     0
174
     0
 93
       13
 44
0.0
173
     0
291
     1
 45
0.0
1001
ACAD
1000
AcDbSavedByObjectVersion
1070
     0
  0
VISUALSTYLE
  5
31
102
{ACAD_REACTORS
330
2A
102
}
102
{ACAD_XDICTIONARY
360
33D
102
}
330
2A
100
AcDbVisualStyle
  2
Hidden
 70
     6
 71
     1
 72
     2
 73
     2
 90
        0
 40
0.6
 41
30.0
 62
     5
 63
     7
 74
     2
 91
        2
 64
     7
 65
   257
 75
     2
175
     1
 42
40.0
 92
        0
 66
   257
 43
1.0
 76
     1
 77
     6
 78
     2
 67
     7
 79
     3
170
     0
171
     0
290
     0
174
     0
 93
        1
 44
0.0
173
     0
291
     0
 45
0.0
1001
ACAD
1000
AcDbSavedByObjectVersion
1070
     0
  0
VISUALSTYLE
  5
3B
102
{ACAD_REACTORS
330
2A
102
}
102
{ACAD_XDICTIONARY
360
351
102
}
330
2A
100
AcDbVisualStyle
  2
JitterOff
 70
    20
 71
     2
 72
     2
 73
     0
 90
        0
 40
0.6
 41
30.0
 62
     5
 63
     7
 74
     1
 91
        4
 64
     7
 65
   257
 75
     1
175
     1
 42
1.0
 92
       10
 66
     7
 43
1.0
 76
     1
 77
     6
 78
     2
 67
     7
 79
     5
170
     0
171
     0
290
     0
174
     0
 93
        1
 44
0.0
173
     0
291
     1
 45
0.0
1001
ACAD
1000
AcDbSavedByObjectVersion
1070
     0
  0
VISUALSTYLE
  5
38
102
{ACAD_REACTORS
330
2A
102
}
102
{ACAD_XDICTIONARY
360
34B
102
}
330
2A
100
AcDbVisualStyle
  2
Linepattern
 70
    14
 71
     2
 72
     2
 73
     0
 90
        0
 40
0.6
 41
30.0
 62
     5
 63
     7
 74
     1
 91
        4
 64
     7
 65
   257
 75
     7
175
     7
 42
1.0
 92
        8
 66
     7
 43
1.0
 76
     1
 77
     6
 78
     2
 67
     7
 79
     5
170
     0
171
     0
290
     0
174
     0
 93
        1
 44
0.0
173
     0
291
     1
 45
0.0
1001
ACAD
1000
AcDbSavedByObjectVersion
1070
     0
  0
VISUALSTYLE
  5
3C
102
{ACAD_REACTORS
330
2A
102
}
102
{ACAD_XDICTIONARY
360
353
102
}
330
2A
100
AcDbVisualStyle
  2
OverhangOff
 70
    21
 71
     2
 72
     2
 73
     0
 90
        0
 40
0.6
 41
30.0
 62
     5
 63
     7
 74
     1
 91
        4
 64
     7
 65
   257
 75
     1
175
     1
 42
1.0
 92
        9
 66
     7
 43
1.0
 76
     1
 77
     6
 78
     2
 67
     7
 79
     5
170
     0
171
     0
290
     0
174
     0
 93
        1
 44
0.0
173
     0
291
     1
 45
0.0
1001
ACAD
1000
AcDbSavedByObjectVersion
1070
     0
  0
VISUALSTYLE
  5
33
102
{ACAD_REACTORS
330
2A
102
}
102
{ACAD_XDICTIONARY
360
341
102
}
330
2A
100
AcDbVisualStyle
  2
Realistic
 70
     8
 71
     2
 72
     3
 73
     0
 90
        2
 40
0.6
 41
30.0
 62
     5
 63
     7
 74
     0
 91
        0
 64
     7
 65
   257
 75
     1
175
     1
 42
1.0
 92
        8
 66
   257
 43
1.0
 76
     1
 77
     6
 78
     2
 67
     7
 79
     3
170
     0
171
     0
290
     0
174
     0
 93
       13
 44
0.0
173
     0
291
     0
 45
0.0
1001
ACAD
1000
AcDbSavedByObjectVersion
1070
     0
  0
VISUALSTYLE
  5
42
102
{ACAD_REACTORS
330
2A
102
}
102
{ACAD_XDICTIONARY
360
35F
102
}
330
2A
100
AcDbVisualStyle
  2
Shaded
 70
    27
 71
     2
 72
     2
 73
     1
 90
        2
 40
0.6
 41
30.0
 62
     5
 63
     7
 74
     0
 91
        4
 64
     7
 65
   257
 75
     1
175
     1
 42
1.0
 92
        8
 66
   257
 43
1.0
 76
     1
 77
     6
 78
     2
 67
     8
 79
     3
170
     0
171
     0
290
     0
174
     0
 93
        5
 44
0.0
173
     0
291
     0
 45
0.0
1001
ACAD
1000
AcDbSavedByObjectVersion
1070
     0
  0
VISUALSTYLE
  5
41
102
{ACAD_REACTORS
330
2A
102
}
102
{ACAD_XDICTIONARY
360
35D
102
}
330
2A
100
AcDbVisualStyle
  2
Shaded with edges
 70
    26
 71
     2
 72
     2
 73
     1
 90
        2
 40
0.6
 41
30.0
 62
     5
 63
     7
 74
     1
 91
       10
 64
     7
 65
   257
 75
     2
175
     1
 42
1.0
 92
        8
 66
   257
 43
1.0
 76
     1
 77
     6
 78
     2
 67
     7
 79
     3
170
     0
171
     0
290
     0
174
     0
 93
        5
 44
0.0
173
     0
291
     0
 45
0.0
1001
ACAD
1000
AcDbSavedByObjectVersion
1070
     0
  0
VISUALSTYLE
  5
3E
102
{ACAD_REACTORS
330
2A
102
}
102
{ACAD_XDICTIONARY
360
357
102
}
330
2A
100
AcDbVisualStyle
  2
Shades of Gray
 70
    23
 71
     2
 72
     2
 73
     3
 90
        0
 40
0.6
 41
30.0
 62
     5
 63
     7
 74
     2
 91
        2
 64
     7
 65
     7
 75
     1
175
     1
 42
40.0
 92
        8
 66
     7
 43
1.0
 76
     1
 77
     6
 78
     2
 67
     7
 79
     3
170
     0
171
     0
290
     0
174
     0
 93
        1
 44
0.0
173
     0
291
     0
 45
0.0
1001
ACAD
1000
AcDbSavedByObjectVersion
1070
     0
  0
VISUALSTYLE
  5
3F
102
{ACAD_REACTORS
330
2A
102
}
102
{ACAD_XDICTIONARY
360
359
102
}
330
2A
100
AcDbVisualStyle
  2
Sketchy
 70
    24
 71
     1
 72
     2
 73
     2
 90
        0
 40
0.6
 41
30.0
 62
     5
 63
     7
 74
     2
 91
        2
 64
     7
 65
     7
 75
     1
175
     1
 42
40.0
 92
       11
 66
     7
 43
1.0
 76
     1
 77
     6
 78
     2
 67
     7
 79
     6
170
     0
171
     0
290
     0
174
     0
 93
        1
 44
0.0
173
     0
291
     0
 45
0.0
1001
ACAD
1000
AcDbSavedByObjectVersion
1070
     0
  0
VISUALSTYLE
  5
37
102
{ACAD_REACTORS
330
2A
102
}
102
{ACAD_XDICTIONARY
360
349
102
}
330
2A
100
AcDbVisualStyle
  2
Thicken
 70
    13
 71
     2
 72
     2
 73
     0
 90
        0
 40
0.6
 41
30.0
 62
     5
 63
     7
 74
     1
 91
        4
 64
     7
 65
   257
 75
     1
175
     1
 42
1.0
 92
       12
 66
     7
 43
1.0
 76
     1
 77
     6
 78
     2
 67
     7
 79
     5
170
     0
171
     0
290
     0
174
     0
 93
        1
 44
0.0
173
     0
291
     1
 45
0.0
1001
ACAD
1000
AcDbSavedByObjectVersion
1070
     0
  0
VISUALSTYLE
  5
30
102
{ACAD_REACTORS
330
2A
102
}
102
{ACAD_XDICTIONARY
360
33B
102
}
330
2A
100
AcDbVisualStyle
  2
Wireframe
 70
     5
 71
     0
 72
     2
 73
     0
 90
        0
 40
0.6
 41
30.0
 62
     5
 63
     7
 74
     1
 91
        4
 64
     7
 65
   257
 75
     1
175
     1
 42
1.0
 92
        0
 66
   257
 43
1.0
 76
     1
 77
     6
 78
     2
 67
     7
 79
     3
170
     0
171
     0
290
     0
174
     0
 93
        1
 44
0.0
173
     0
291
     0
 45
0.0
1001
ACAD
1000
AcDbSavedByObjectVersion
1070
     0
  0
VISUALSTYLE
  5
40
102
{ACAD_REACTORS
330
2A
102
}
102
{ACAD_XDICTIONARY
360
35B
102
}
330
2A
100
AcDbVisualStyle
  2
X-Ray
 70
    25
 71
     2
 72
     2
 73
     1
 90
        1
 40
0.5
 41
30.0
 62
     5
 63
     7
 74
     1
 91
        0
 64
     7
 65
   257
 75
     1
175
     1
 42
1.0
 92
        8
 66
     7
 43
1.0
 76
     1
 77
     6
 78
     2
 67
     7
 79
     3
170
     0
171
     0
290
     0
174
     0
 93
       13
 44
0.0
173
     0
291
     0
 45
0.0
1001
ACAD
1000
AcDbSavedByObjectVersion
1070
     0
  0
DICTIONARYVAR
  5
32F
102
{ACAD_REACTORS
330
323
102
}
330
323
100
DictionaryVariables
280
     0
  1
1:1
  0
DICTIONARYVAR
  5
325
102
{ACAD_REACTORS
330
323
102
}
330
323
100
DictionaryVariables
280
     0
  1
Standard
  0
DICTIONARYVAR
  5
324
102
{ACAD_REACTORS
330
323
102
}
330
323
100
DictionaryVariables
280
     0
  1
Standard
  0
DICTIONARYVAR
  5
328
102
{ACAD_REACTORS
330
323
102
}
330
323
100
DictionaryVariables
280
     0
  1
2
  0
DICTIONARYVAR
  5
329
102
{ACAD_REACTORS
330
323
102
}
330
323
100
DictionaryVariables
280
     0
  1
1
  0
DICTIONARYVAR
  5
330
102
{ACAD_REACTORS
330
323
102
}
330
323
100
DictionaryVariables
280
     0
  1
1
  0
DICTIONARY
  5
363
330
45
100
AcDbDictionary
280
     1
281
     1
  3
ACAD_XREC_ROUNDTRIP
360
364
  0
DICTIONARY
  5
361
330
44
100
AcDbDictionary
280
     1
281
     1
  3
ACAD_XREC_ROUNDTRIP
360
362
  0
DICTIONARY
  5
365
330
46
100
AcDbDictionary
280
     1
281
     1
  3
ACAD_XREC_ROUNDTRIP
360
366
  0
DICTIONARY
  5
368
330
6C
100
AcDbDictionary
280
     1
281
     1
  3
ACAD_XREC_ROUNDTRIP
360
369
  0
DICTIONARY
  5
339
330
2F
100
AcDbDictionary
280
     1
281
     1
  3
ACAD_XREC_ROUNDTRIP
360
33A
  0
DICTIONARY
  5
33F
330
32
100
AcDbDictionary
280
     1
281
     1
  3
ACAD_XREC_ROUNDTRIP
360
340
  0
DICTIONARY
  5
347
330
36
100
AcDbDictionary
280
     1
281
     1
  3
ACAD_XREC_ROUNDTRIP
360
348
  0
DICTIONARY
  5
34F
330
3A
100
AcDbDictionary
280
     1
281
     1
  3
ACAD_XREC_ROUNDTRIP
360
350
  0
DICTIONARY
  5
343
330
34
100
AcDbDictionary
280
     1
281
     1
  3
ACAD_XREC_ROUNDTRIP
360
344
  0
DICTIONARY
  5
345
330
35
100
AcDbDictionary
280
     1
281
     1
  3
ACAD_XREC_ROUNDTRIP
360
346
  0
DICTIONARY
  5
355
330
3D
100
AcDbDictionary
280
     1
281
     1
  3
ACAD_XREC_ROUNDTRIP
360
356
  0
DICTIONARY
  5
34D
330
39
100
AcDbDictionary
280
     1
281
     1
  3
ACAD_XREC_ROUNDTRIP
360
34E
  0
DICTIONARY
  5
331
330
2B
100
AcDbDictionary
280
     1
281
     1
  3
ACAD_XREC_ROUNDTRIP
360
332
  0
DICTIONARY
  5
333
330
2C
100
AcDbDictionary
280
     1
281
     1
  3
ACAD_XREC_ROUNDTRIP
360
334
  0
DICTIONARY
  5
335
330
2D
100
AcDbDictionary
280
     1
281
     1
  3
ACAD_XREC_ROUNDTRIP
360
336
  0
DICTIONARY
  5
337
330
2E
100
AcDbDictionary
280
     1
281
     1
  3
ACAD_XREC_ROUNDTRIP
360
338
  0
DICTIONARY
  5
33D
330
31
100
AcDbDictionary
280
     1
281
     1
  3
ACAD_XREC_ROUNDTRIP
360
33E
  0
DICTIONARY
  5
351
330
3B
100
AcDbDictionary
280
     1
281
     1
  3
ACAD_XREC_ROUNDTRIP
360
352
  0
DICTIONARY
  5
34B
330
38
100
AcDbDictionary
280
     1
281
     1
  3
ACAD_XREC_ROUNDTRIP
360
34C
  0
DICTIONARY
  5
353
330
3C
100
AcDbDictionary
280
     1
281
     1
  3
ACAD_XREC_ROUNDTRIP
360
354
  0
DICTIONARY
  5
341
330
33
100
AcDbDictionary
280
     1
281
     1
  3
ACAD_XREC_ROUNDTRIP
360
342
  0
DICTIONARY
  5
35F
330
42
100
AcDbDictionary
280
     1
281
     1
  3
ACAD_XREC_ROUNDTRIP
360
360
  0
DICTIONARY
  5
35D
330
41
100
AcDbDictionary
280
     1
281
     1
  3
ACAD_XREC_ROUNDTRIP
360
35E
  0
DICTIONARY
  5
357
330
3E
100
AcDbDictionary
280
     1
281
     1
  3
ACAD_XREC_ROUNDTRIP
360
358
  0
DICTIONARY
  5
359
330
3F
100
AcDbDictionary
280
     1
281
     1
  3
ACAD_XREC_ROUNDTRIP
360
35A
  0
DICTIONARY
  5
349
330
37
100
AcDbDictionary
280
     1
281
     1
  3
ACAD_XREC_ROUNDTRIP
360
34A
  0
DICTIONARY
  5
33B
330
30
100
AcDbDictionary
280
     1
281
     1
  3
ACAD_XREC_ROUNDTRIP
360
33C
  0
DICTIONARY
  5
35B
330
40
100
AcDbDictionary
280
     1
281
     1
  3
ACAD_XREC_ROUNDTRIP
360
35C
  0
XRECORD
  5
364
102
{ACAD_REACTORS
330
363
102
}
330
363
100
AcDbXrecord
280
     1
102
MATERIAL
148
0.0
149
0.0
149
0.0
 93
        0
 94
      127
282
     0
 72
     1
 77
     1
171
     1
175
     1
179
     1
273
     0
  0
XRECORD
  5
362
102
{ACAD_REACTORS
330
361
102
}
330
361
100
AcDbXrecord
280
     1
102
MATERIAL
148
0.0
149
0.0
149
0.0
 93
        0
 94
      127
282
     0
 72
     1
 77
     1
171
     1
175
     1
179
     1
273
     0
  0
XRECORD
  5
366
102
{ACAD_REACTORS
330
365
102
}
330
365
100
AcDbXrecord
280
     1
102
MATERIAL
148
0.0
149
0.0
149
0.0
 93
        0
 94
      127
282
     0
 72
     1
 77
     1
171
     1
175
     1
179
     1
273
     0
  0
XRECORD
  5
369
102
{ACAD_REACTORS
330
368
102
}
330
368
100
AcDbXrecord
280
     1
102
ACAD_ROUNDTRIP_2010_MLEADER_STYLE
  0
XRECORD
  5
33A
102
{ACAD_REACTORS
330
339
102
}
330
339
100
AcDbXrecord
280
     1
102
RTVSPropertyOp0
 70
     1
102
RTVSPropertyOp1
 70
     1
102
RTVSPropertyOp2
 70
     1
102
RTVSPropertyOp3
 70
     1
102
RTVSPropertyOp4
 70
     1
102
RTVSPropertyOp5
 70
     1
102
RTVSPropertyOp6
 70
     1
102
RTVSPropertyOp7
 70
     1
102
RTVSPropertyOp8
 70
     1
102
RTVSPropertyOp9
 70
     1
102
RTVSPropertyOp10
 70
     1
102
RTVSPropertyOp11
 70
     1
102
RTVSPropertyOp12
 70
     1
102
RTVSPropertyOp13
 70
     1
102
RTVSPropertyOp14
 70
     1
102
RTVSPropertyOp15
 70
     1
102
RTVSPropertyOp16
 70
     1
102
RTVSPropertyOp17
 70
     1
102
RTVSPropertyOp18
 70
     1
102
RTVSPropertyOp19
 70
     1
102
RTVSPropertyOp20
 70
     1
102
RTVSPropertyOp21
 70
     1
102
RTVSPropertyOp22
 70
     1
102
RTVSPropertyOp23
 70
     1
102
RTVSPropertyOp24
 70
     1
102
RTVSPropertyOp25
 70
     1
102
RTVSPropertyOp26
 70
     1
102
RTVSPropertyOp27
 70
     1
102
RTVSPropertyOp28
 70
     1
102
RTVSPropertyOp29
 70
     1
102
RTVSPropertyOp30
 70
     1
102
RTVSPropertyOp31
 70
     1
102
RTVSPropertyOp32
 70
     1
102
RTVSPropertyOp33
 70
     1
102
RTVSPropertyOp34
 70
     1
102
RTVSPropertyOp35
 70
     1
102
RTVSPropertyOp36
 70
     1
102
RTVSPropertyOp37
 70
     1
102
RTVSPropertyOp38
 70
     1
102
RTVSPropertyOp39
 70
     1
102
RTVSPropertyOp40
 70
     1
102
RTVSPropertyOp41
 70
     1
102
RTVSPropertyOp42
 70
     1
102
RTVSPropertyOp43
 70
     1
102
RTVSPropertyOp44
 70
     1
102
RTVSPropertyOp45
 70
     1
102
RTVSPropertyOp46
 70
     1
102
RTVSPropertyOp47
 70
     1
102
RTVSPropertyOp48
 70
     1
102
RTVSPropertyOp49
 70
     1
102
RTVSPropertyOp50
 70
     1
102
RTVSPropertyOp51
 70
     0
102
RTVSPropertyOp52
 70
     0
102
RTVSPropertyOp53
 70
     1
102
RTVSPropertyOp54
 70
     1
102
RTVSPropertyOp55
 70
     1
102
RTVSPropertyOp56
 70
     1
102
RTVSPropertyOp57
 70
     1
102
RTVSPost2010Prop28
280
     1
102
RTVSPost2010PropOp28
 70
     1
102
RTVSPost2010Prop29
280
     1
102
RTVSPost2010PropOp29
 70
     1
102
RTVSPost2010Prop30
280
     0
102
RTVSPost2010PropOp30
 70
     1
102
RTVSPost2010Prop31
280
     0
102
RTVSPost2010PropOp31
 70
     1
102
RTVSPost2010Prop32
280
     0
102
RTVSPost2010PropOp32
 70
     1
102
RTVSPost2010Prop33
280
     0
102
RTVSPost2010PropOp33
 70
     1
102
RTVSPost2010Prop34
280
     0
102
RTVSPost2010PropOp34
 70
     1
102
RTVSPost2010Prop35
280
     0
102
RTVSPost2010PropOp35
 70
     1
102
RTVSPost2010Prop36
280
     0
102
RTVSPost2010PropOp36
 70
     1
102
RTVSPost2010Prop37
 90
       50
102
RTVSPost2010PropOp37
 70
     1
102
RTVSPost2010Prop38
140
0.0
102
RTVSPost2010PropOp38
 70
     1
102
RTVSPost2010Prop39
140
1.0
102
RTVSPost2010PropOp39
 70
     1
102
RTVSPost2010Prop40
 90
        0
102
RTVSPost2010PropOp40
 70
     1
102
RTVSPost2010Prop41ColorIndex
 90
       18
102
RTVSPost2010Prop41ColorRGB
 90
        0
102
RTVSPost2010PropOp41
 70
     1
102
RTVSPost2010Prop42
 90
       50
102
RTVSPost2010PropOp42
 70
     1
102
RTVSPost2010Prop43
 90
        3
102
RTVSPost2010PropOp43
 70
     1
102
RTVSPost2010Prop44ColorIndex
 90
        5
102
RTVSPost2010Prop44ColorRGB
 90
      255
102
RTVSPost2010PropOp44
 70
     1
102
RTVSPost2010Prop45
280
     0
102
RTVSPost2010PropOp45
 70
     1
102
RTVSPost2010Prop46
 90
       50
102
RTVSPost2010PropOp46
 70
     1
102
RTVSPost2010Prop47
 90
       50
102
RTVSPost2010PropOp47
 70
     1
102
RTVSPost2010Prop48
 90
       50
102
RTVSPost2010PropOp48
 70
     1
102
RTVSPost2010Prop49
280
     0
102
RTVSPost2010PropOp49
 70
     1
102
RTVSPost2010Prop50
 90
       50
102
RTVSPost2010PropOp50
 70
     1
102
RTVSPost2010Prop51ColorIndex
 90
      256
102
RTVSPost2010Prop51ColorRGB
 90
-16777216
102
RTVSPost2010PropOp51
 70
     0
102
RTVSPost2010Prop52
140
1.0
102
RTVSPost2010PropOp52
 70
     0
102
RTVSPost2010Prop53
 90
        2
102
RTVSPost2010PropOp53
 70
     1
102
RTVSPost2010Prop54
  1
strokes_ogs.tif
102
RTVSPost2010PropOp54
 70
     1
102
RTVSPost2010Prop55
280
     0
102
RTVSPost2010PropOp55
 70
     1
102
RTVSPost2010Prop56
140
1.0
102
RTVSPost2010PropOp56
 70
     1
102
RTVSPost2010Prop57
140
1.0
102
RTVSPost2010PropOp57
 70
     1
  0
XRECORD
  5
340
102
{ACAD_REACTORS
330
33F
102
}
330
33F
100
AcDbXrecord
280
     1
102
RTVSPropertyOp0
 70
     1
102
RTVSPropertyOp1
 70
     1
102
RTVSPropertyOp2
 70
     1
102
RTVSPropertyOp3
 70
     1
102
RTVSPropertyOp4
 70
     1
102
RTVSPropertyOp5
 70
     1
102
RTVSPropertyOp6
 70
     1
102
RTVSPropertyOp7
 70
     1
102
RTVSPropertyOp8
 70
     1
102
RTVSPropertyOp9
 70
     1
102
RTVSPropertyOp10
 70
     1
102
RTVSPropertyOp11
 70
     1
102
RTVSPropertyOp12
 70
     1
102
RTVSPropertyOp13
 70
     1
102
RTVSPropertyOp14
 70
     1
102
RTVSPropertyOp15
 70
     1
102
RTVSPropertyOp16
 70
     1
102
RTVSPropertyOp17
 70
     1
102
RTVSPropertyOp18
 70
     1
102
RTVSPropertyOp19
 70
     1
102
RTVSPropertyOp20
 70
     1
102
RTVSPropertyOp21
 70
     1
102
RTVSPropertyOp22
 70
     1
102
RTVSPropertyOp23
 70
     1
102
RTVSPropertyOp24
 70
     1
102
RTVSPropertyOp25
 70
     1
102
RTVSPropertyOp26
 70
     1
102
RTVSPropertyOp27
 70
     1
102
RTVSPropertyOp28
 70
     1
102
RTVSPropertyOp29
 70
     1
102
RTVSPropertyOp30
 70
     1
102
RTVSPropertyOp31
 70
     1
102
RTVSPropertyOp32
 70
     1
102
RTVSPropertyOp33
 70
     1
102
RTVSPropertyOp34
 70
     1
102
RTVSPropertyOp35
 70
     1
102
RTVSPropertyOp36
 70
     1
102
RTVSPropertyOp37
 70
     1
102
RTVSPropertyOp38
 70
     1
102
RTVSPropertyOp39
 70
     1
102
RTVSPropertyOp40
 70
     1
102
RTVSPropertyOp41
 70
     1
102
RTVSPropertyOp42
 70
     1
102
RTVSPropertyOp43
 70
     1
102
RTVSPropertyOp44
 70
     1
102
RTVSPropertyOp45
 70
     1
102
RTVSPropertyOp46
 70
     1
102
RTVSPropertyOp47
 70
     1
102
RTVSPropertyOp48
 70
     1
102
RTVSPropertyOp49
 70
     1
102
RTVSPropertyOp50
 70
     1
102
RTVSPropertyOp51
 70
     0
102
RTVSPropertyOp52
 70
     0
102
RTVSPropertyOp53
 70
     1
102
RTVSPropertyOp54
 70
     1
102
RTVSPropertyOp55
 70
     1
102
RTVSPropertyOp56
 70
     1
102
RTVSPropertyOp57
 70
     1
102
RTVSPost2010Prop28
280
     0
102
RTVSPost2010PropOp28
 70
     1
102
RTVSPost2010Prop29
280
     1
102
RTVSPost2010PropOp29
 70
     1
102
RTVSPost2010Prop30
280
     1
102
RTVSPost2010PropOp30
 70
     1
102
RTVSPost2010Prop31
280
     0
102
RTVSPost2010PropOp31
 70
     1
102
RTVSPost2010Prop32
280
     0
102
RTVSPost2010PropOp32
 70
     1
102
RTVSPost2010Prop33
280
     0
102
RTVSPost2010PropOp33
 70
     1
102
RTVSPost2010Prop34
280
     0
102
RTVSPost2010PropOp34
 70
     1
102
RTVSPost2010Prop35
280
     0
102
RTVSPost2010PropOp35
 70
     1
102
RTVSPost2010Prop36
280
     0
102
RTVSPost2010PropOp36
 70
     1
102
RTVSPost2010Prop37
 90
       50
102
RTVSPost2010PropOp37
 70
     1
102
RTVSPost2010Prop38
140
0.0
102
RTVSPost2010PropOp38
 70
     1
102
RTVSPost2010Prop39
140
1.0
102
RTVSPost2010PropOp39
 70
     1
102
RTVSPost2010Prop40
 90
        0
102
RTVSPost2010PropOp40
 70
     1
102
RTVSPost2010Prop41ColorIndex
 90
       18
102
RTVSPost2010Prop41ColorRGB
 90
        0
102
RTVSPost2010PropOp41
 70
     1
102
RTVSPost2010Prop42
 90
       50
102
RTVSPost2010PropOp42
 70
     1
102
RTVSPost2010Prop43
 90
        3
102
RTVSPost2010PropOp43
 70
     1
102
RTVSPost2010Prop44ColorIndex
 90
        5
102
RTVSPost2010Prop44ColorRGB
 90
      255
102
RTVSPost2010PropOp44
 70
     1
102
RTVSPost2010Prop45
280
     0
102
RTVSPost2010PropOp45
 70
     1
102
RTVSPost2010Prop46
 90
       50
102
RTVSPost2010PropOp46
 70
     1
102
RTVSPost2010Prop47
 90
       50
102
RTVSPost2010PropOp47
 70
     1
102
RTVSPost2010Prop48
 90
       50
102
RTVSPost2010PropOp48
 70
     1
102
RTVSPost2010Prop49
280
     0
102
RTVSPost2010PropOp49
 70
     1
102
RTVSPost2010Prop50
 90
       50
102
RTVSPost2010PropOp50
 70
     1
102
RTVSPost2010Prop51ColorIndex
 90
      256
102
RTVSPost2010Prop51ColorRGB
 90
-16777216
102
RTVSPost2010PropOp51
 70
     0
102
RTVSPost2010Prop52
140
1.0
102
RTVSPost2010PropOp52
 70
     0
102
RTVSPost2010Prop53
 90
        2
102
RTVSPost2010PropOp53
 70
     1
102
RTVSPost2010Prop54
  1
strokes_ogs.tif
102
RTVSPost2010PropOp54
 70
     1
102
RTVSPost2010Prop55
280
     0
102
RTVSPost2010PropOp55
 70
     1
102
RTVSPost2010Prop56
140
1.0
102
RTVSPost2010PropOp56
 70
     1
102
RTVSPost2010Prop57
140
1.0
102
RTVSPost2010PropOp57
 70
     1
  0
XRECORD
  5
348
102
{ACAD_REACTORS
330
347
102
}
330
347
100
AcDbXrecord
280
     1
102
RTVSPropertyOp0
 70
     1
102
RTVSPropertyOp1
 70
     1
102
RTVSPropertyOp2
 70
     1
102
RTVSPropertyOp3
 70
     1
102
RTVSPropertyOp4
 70
     1
102
RTVSPropertyOp5
 70
     1
102
RTVSPropertyOp6
 70
     1
102
RTVSPropertyOp7
 70
     1
102
RTVSPropertyOp8
 70
     1
102
RTVSPropertyOp9
 70
     1
102
RTVSPropertyOp10
 70
     1
102
RTVSPropertyOp11
 70
     1
102
RTVSPropertyOp12
 70
     1
102
RTVSPropertyOp13
 70
     1
102
RTVSPropertyOp14
 70
     1
102
RTVSPropertyOp15
 70
     1
102
RTVSPropertyOp16
 70
     1
102
RTVSPropertyOp17
 70
     1
102
RTVSPropertyOp18
 70
     1
102
RTVSPropertyOp19
 70
     1
102
RTVSPropertyOp20
 70
     1
102
RTVSPropertyOp21
 70
     1
102
RTVSPropertyOp22
 70
     1
102
RTVSPropertyOp23
 70
     1
102
RTVSPropertyOp24
 70
     1
102
RTVSPropertyOp25
 70
     1
102
RTVSPropertyOp26
 70
     1
102
RTVSPropertyOp27
 70
     1
102
RTVSPropertyOp28
 70
     1
102
RTVSPropertyOp29
 70
     1
102
RTVSPropertyOp30
 70
     1
102
RTVSPropertyOp31
 70
     1
102
RTVSPropertyOp32
 70
     1
102
RTVSPropertyOp33
 70
     1
102
RTVSPropertyOp34
 70
     1
102
RTVSPropertyOp35
 70
     1
102
RTVSPropertyOp36
 70
     1
102
RTVSPropertyOp37
 70
     1
102
RTVSPropertyOp38
 70
     1
102
RTVSPropertyOp39
 70
     1
102
RTVSPropertyOp40
 70
     1
102
RTVSPropertyOp41
 70
     1
102
RTVSPropertyOp42
 70
     1
102
RTVSPropertyOp43
 70
     1
102
RTVSPropertyOp44
 70
     1
102
RTVSPropertyOp45
 70
     1
102
RTVSPropertyOp46
 70
     1
102
RTVSPropertyOp47
 70
     1
102
RTVSPropertyOp48
 70
     1
102
RTVSPropertyOp49
 70
     1
102
RTVSPropertyOp50
 70
     1
102
RTVSPropertyOp51
 70
     0
102
RTVSPropertyOp52
 70
     0
102
RTVSPropertyOp53
 70
     1
102
RTVSPropertyOp54
 70
     1
102
RTVSPropertyOp55
 70
     1
102
RTVSPropertyOp56
 70
     1
102
RTVSPropertyOp57
 70
     1
102
RTVSPost2010Prop28
280
     0
102
RTVSPost2010PropOp28
 70
     1
102
RTVSPost2010Prop29
280
     1
102
RTVSPost2010PropOp29
 70
     1
102
RTVSPost2010Prop30
280
     1
102
RTVSPost2010PropOp30
 70
     1
102
RTVSPost2010Prop31
280
     0
102
RTVSPost2010PropOp31
 70
     1
102
RTVSPost2010Prop32
280
     0
102
RTVSPost2010PropOp32
 70
     1
102
RTVSPost2010Prop33
280
     0
102
RTVSPost2010PropOp33
 70
     1
102
RTVSPost2010Prop34
280
     0
102
RTVSPost2010PropOp34
 70
     1
102
RTVSPost2010Prop35
280
     0
102
RTVSPost2010PropOp35
 70
     1
102
RTVSPost2010Prop36
280
     0
102
RTVSPost2010PropOp36
 70
     1
102
RTVSPost2010Prop37
 90
       50
102
RTVSPost2010PropOp37
 70
     1
102
RTVSPost2010Prop38
140
0.0
102
RTVSPost2010PropOp38
 70
     1
102
RTVSPost2010Prop39
140
1.0
102
RTVSPost2010PropOp39
 70
     1
102
RTVSPost2010Prop40
 90
        0
102
RTVSPost2010PropOp40
 70
     1
102
RTVSPost2010Prop41ColorIndex
 90
       18
102
RTVSPost2010Prop41ColorRGB
 90
        0
102
RTVSPost2010PropOp41
 70
     1
102
RTVSPost2010Prop42
 90
       50
102
RTVSPost2010PropOp42
 70
     1
102
RTVSPost2010Prop43
 90
        3
102
RTVSPost2010PropOp43
 70
     1
102
RTVSPost2010Prop44ColorIndex
 90
        5
102
RTVSPost2010Prop44ColorRGB
 90
      255
102
RTVSPost2010PropOp44
 70
     1
102
RTVSPost2010Prop45
280
     0
102
RTVSPost2010PropOp45
 70
     1
102
RTVSPost2010Prop46
 90
       50
102
RTVSPost2010PropOp46
 70
     1
102
RTVSPost2010Prop47
 90
       50
102
RTVSPost2010PropOp47
 70
     1
102
RTVSPost2010Prop48
 90
       50
102
RTVSPost2010PropOp48
 70
     1
102
RTVSPost2010Prop49
280
     0
102
RTVSPost2010PropOp49
 70
     1
102
RTVSPost2010Prop50
 90
       50
102
RTVSPost2010PropOp50
 70
     1
102
RTVSPost2010Prop51ColorIndex
 90
      256
102
RTVSPost2010Prop51ColorRGB
 90
-16777216
102
RTVSPost2010PropOp51
 70
     0
102
RTVSPost2010Prop52
140
1.0
102
RTVSPost2010PropOp52
 70
     0
102
RTVSPost2010Prop53
 90
        2
102
RTVSPost2010PropOp53
 70
     1
102
RTVSPost2010Prop54
  1
strokes_ogs.tif
102
RTVSPost2010PropOp54
 70
     1
102
RTVSPost2010Prop55
280
     0
102
RTVSPost2010PropOp55
 70
     1
102
RTVSPost2010Prop56
140
1.0
102
RTVSPost2010PropOp56
 70
     1
102
RTVSPost2010Prop57
140
1.0
102
RTVSPost2010PropOp57
 70
     1
  0
XRECORD
  5
350
102
{ACAD_REACTORS
330
34F
102
}
330
34F
100
AcDbXrecord
280
     1
102
RTVSPropertyOp0
 70
     1
102
RTVSPropertyOp1
 70
     1
102
RTVSPropertyOp2
 70
     1
102
RTVSPropertyOp3
 70
     1
102
RTVSPropertyOp4
 70
     1
102
RTVSPropertyOp5
 70
     1
102
RTVSPropertyOp6
 70
     1
102
RTVSPropertyOp7
 70
     1
102
RTVSPropertyOp8
 70
     1
102
RTVSPropertyOp9
 70
     1
102
RTVSPropertyOp10
 70
     1
102
RTVSPropertyOp11
 70
     1
102
RTVSPropertyOp12
 70
     1
102
RTVSPropertyOp13
 70
     1
102
RTVSPropertyOp14
 70
     1
102
RTVSPropertyOp15
 70
     1
102
RTVSPropertyOp16
 70
     1
102
RTVSPropertyOp17
 70
     1
102
RTVSPropertyOp18
 70
     1
102
RTVSPropertyOp19
 70
     1
102
RTVSPropertyOp20
 70
     1
102
RTVSPropertyOp21
 70
     1
102
RTVSPropertyOp22
 70
     1
102
RTVSPropertyOp23
 70
     1
102
RTVSPropertyOp24
 70
     1
102
RTVSPropertyOp25
 70
     1
102
RTVSPropertyOp26
 70
     1
102
RTVSPropertyOp27
 70
     1
102
RTVSPropertyOp28
 70
     1
102
RTVSPropertyOp29
 70
     1
102
RTVSPropertyOp30
 70
     1
102
RTVSPropertyOp31
 70
     1
102
RTVSPropertyOp32
 70
     1
102
RTVSPropertyOp33
 70
     1
102
RTVSPropertyOp34
 70
     1
102
RTVSPropertyOp35
 70
     1
102
RTVSPropertyOp36
 70
     1
102
RTVSPropertyOp37
 70
     1
102
RTVSPropertyOp38
 70
     1
102
RTVSPropertyOp39
 70
     1
102
RTVSPropertyOp40
 70
     1
102
RTVSPropertyOp41
 70
     1
102
RTVSPropertyOp42
 70
     1
102
RTVSPropertyOp43
 70
     1
102
RTVSPropertyOp44
 70
     1
102
RTVSPropertyOp45
 70
     1
102
RTVSPropertyOp46
 70
     1
102
RTVSPropertyOp47
 70
     1
102
RTVSPropertyOp48
 70
     1
102
RTVSPropertyOp49
 70
     1
102
RTVSPropertyOp50
 70
     1
102
RTVSPropertyOp51
 70
     0
102
RTVSPropertyOp52
 70
     0
102
RTVSPropertyOp53
 70
     1
102
RTVSPropertyOp54
 70
     1
102
RTVSPropertyOp55
 70
     1
102
RTVSPropertyOp56
 70
     1
102
RTVSPropertyOp57
 70
     1
102
RTVSPost2010Prop28
280
     0
102
RTVSPost2010PropOp28
 70
     1
102
RTVSPost2010Prop29
280
     1
102
RTVSPost2010PropOp29
 70
     1
102
RTVSPost2010Prop30
280
     1
102
RTVSPost2010PropOp30
 70
     1
102
RTVSPost2010Prop31
280
     0
102
RTVSPost2010PropOp31
 70
     1
102
RTVSPost2010Prop32
280
     0
102
RTVSPost2010PropOp32
 70
     1
102
RTVSPost2010Prop33
280
     0
102
RTVSPost2010PropOp33
 70
     1
102
RTVSPost2010Prop34
280
     0
102
RTVSPost2010PropOp34
 70
     1
102
RTVSPost2010Prop35
280
     0
102
RTVSPost2010PropOp35
 70
     1
102
RTVSPost2010Prop36
280
     0
102
RTVSPost2010PropOp36
 70
     1
102
RTVSPost2010Prop37
 90
       50
102
RTVSPost2010PropOp37
 70
     1
102
RTVSPost2010Prop38
140
0.0
102
RTVSPost2010PropOp38
 70
     1
102
RTVSPost2010Prop39
140
1.0
102
RTVSPost2010PropOp39
 70
     1
102
RTVSPost2010Prop40
 90
        0
102
RTVSPost2010PropOp40
 70
     1
102
RTVSPost2010Prop41ColorIndex
 90
       18
102
RTVSPost2010Prop41ColorRGB
 90
        0
102
RTVSPost2010PropOp41
 70
     1
102
RTVSPost2010Prop42
 90
       50
102
RTVSPost2010PropOp42
 70
     1
102
RTVSPost2010Prop43
 90
        3
102
RTVSPost2010PropOp43
 70
     1
102
RTVSPost2010Prop44ColorIndex
 90
        5
102
RTVSPost2010Prop44ColorRGB
 90
      255
102
RTVSPost2010PropOp44
 70
     1
102
RTVSPost2010Prop45
280
     0
102
RTVSPost2010PropOp45
 70
     1
102
RTVSPost2010Prop46
 90
       50
102
RTVSPost2010PropOp46
 70
     1
102
RTVSPost2010Prop47
 90
       50
102
RTVSPost2010PropOp47
 70
     1
102
RTVSPost2010Prop48
 90
       50
102
RTVSPost2010PropOp48
 70
     1
102
RTVSPost2010Prop49
280
     0
102
RTVSPost2010PropOp49
 70
     1
102
RTVSPost2010Prop50
 90
       50
102
RTVSPost2010PropOp50
 70
     1
102
RTVSPost2010Prop51ColorIndex
 90
      256
102
RTVSPost2010Prop51ColorRGB
 90
-16777216
102
RTVSPost2010PropOp51
 70
     0
102
RTVSPost2010Prop52
140
1.0
102
RTVSPost2010PropOp52
 70
     0
102
RTVSPost2010Prop53
 90
        2
102
RTVSPost2010PropOp53
 70
     1
102
RTVSPost2010Prop54
  1
strokes_ogs.tif
102
RTVSPost2010PropOp54
 70
     1
102
RTVSPost2010Prop55
280
     0
102
RTVSPost2010PropOp55
 70
     1
102
RTVSPost2010Prop56
140
1.0
102
RTVSPost2010PropOp56
 70
     1
102
RTVSPost2010Prop57
140
1.0
102
RTVSPost2010PropOp57
 70
     1
  0
XRECORD
  5
344
102
{ACAD_REACTORS
330
343
102
}
330
343
100
AcDbXrecord
280
     1
102
RTVSPropertyOp0
 70
     1
102
RTVSPropertyOp1
 70
     1
102
RTVSPropertyOp2
 70
     1
102
RTVSPropertyOp3
 70
     1
102
RTVSPropertyOp4
 70
     1
102
RTVSPropertyOp5
 70
     1
102
RTVSPropertyOp6
 70
     1
102
RTVSPropertyOp7
 70
     1
102
RTVSPropertyOp8
 70
     1
102
RTVSPropertyOp9
 70
     1
102
RTVSPropertyOp10
 70
     1
102
RTVSPropertyOp11
 70
     1
102
RTVSPropertyOp12
 70
     1
102
RTVSPropertyOp13
 70
     1
102
RTVSPropertyOp14
 70
     1
102
RTVSPropertyOp15
 70
     1
102
RTVSPropertyOp16
 70
     1
102
RTVSPropertyOp17
 70
     1
102
RTVSPropertyOp18
 70
     1
102
RTVSPropertyOp19
 70
     1
102
RTVSPropertyOp20
 70
     1
102
RTVSPropertyOp21
 70
     1
102
RTVSPropertyOp22
 70
     1
102
RTVSPropertyOp23
 70
     1
102
RTVSPropertyOp24
 70
     1
102
RTVSPropertyOp25
 70
     1
102
RTVSPropertyOp26
 70
     1
102
RTVSPropertyOp27
 70
     1
102
RTVSPropertyOp28
 70
     1
102
RTVSPropertyOp29
 70
     1
102
RTVSPropertyOp30
 70
     1
102
RTVSPropertyOp31
 70
     1
102
RTVSPropertyOp32
 70
     1
102
RTVSPropertyOp33
 70
     1
102
RTVSPropertyOp34
 70
     1
102
RTVSPropertyOp35
 70
     1
102
RTVSPropertyOp36
 70
     1
102
RTVSPropertyOp37
 70
     1
102
RTVSPropertyOp38
 70
     1
102
RTVSPropertyOp39
 70
     1
102
RTVSPropertyOp40
 70
     1
102
RTVSPropertyOp41
 70
     1
102
RTVSPropertyOp42
 70
     1
102
RTVSPropertyOp43
 70
     1
102
RTVSPropertyOp44
 70
     1
102
RTVSPropertyOp45
 70
     1
102
RTVSPropertyOp46
 70
     1
102
RTVSPropertyOp47
 70
     1
102
RTVSPropertyOp48
 70
     1
102
RTVSPropertyOp49
 70
     1
102
RTVSPropertyOp50
 70
     1
102
RTVSPropertyOp51
 70
     0
102
RTVSPropertyOp52
 70
     0
102
RTVSPropertyOp53
 70
     1
102
RTVSPropertyOp54
 70
     1
102
RTVSPropertyOp55
 70
     1
102
RTVSPropertyOp56
 70
     1
102
RTVSPropertyOp57
 70
     1
102
RTVSPost2010Prop28
280
     0
102
RTVSPost2010PropOp28
 70
     1
102
RTVSPost2010Prop29
280
     1
102
RTVSPost2010PropOp29
 70
     1
102
RTVSPost2010Prop30
280
     1
102
RTVSPost2010PropOp30
 70
     1
102
RTVSPost2010Prop31
280
     0
102
RTVSPost2010PropOp31
 70
     1
102
RTVSPost2010Prop32
280
     0
102
RTVSPost2010PropOp32
 70
     1
102
RTVSPost2010Prop33
280
     0
102
RTVSPost2010PropOp33
 70
     1
102
RTVSPost2010Prop34
280
     0
102
RTVSPost2010PropOp34
 70
     1
102
RTVSPost2010Prop35
280
     0
102
RTVSPost2010PropOp35
 70
     1
102
RTVSPost2010Prop36
280
     0
102
RTVSPost2010PropOp36
 70
     1
102
RTVSPost2010Prop37
 90
       50
102
RTVSPost2010PropOp37
 70
     1
102
RTVSPost2010Prop38
140
0.0
102
RTVSPost2010PropOp38
 70
     1
102
RTVSPost2010Prop39
140
1.0
102
RTVSPost2010PropOp39
 70
     1
102
RTVSPost2010Prop40
 90
        0
102
RTVSPost2010PropOp40
 70
     1
102
RTVSPost2010Prop41ColorIndex
 90
       18
102
RTVSPost2010Prop41ColorRGB
 90
        0
102
RTVSPost2010PropOp41
 70
     1
102
RTVSPost2010Prop42
 90
       50
102
RTVSPost2010PropOp42
 70
     1
102
RTVSPost2010Prop43
 90
        3
102
RTVSPost2010PropOp43
 70
     1
102
RTVSPost2010Prop44ColorIndex
 90
        5
102
RTVSPost2010Prop44ColorRGB
 90
      255
102
RTVSPost2010PropOp44
 70
     1
102
RTVSPost2010Prop45
280
     0
102
RTVSPost2010PropOp45
 70
     1
102
RTVSPost2010Prop46
 90
       50
102
RTVSPost2010PropOp46
 70
     1
102
RTVSPost2010Prop47
 90
       50
102
RTVSPost2010PropOp47
 70
     1
102
RTVSPost2010Prop48
 90
       50
102
RTVSPost2010PropOp48
 70
     1
102
RTVSPost2010Prop49
280
     0
102
RTVSPost2010PropOp49
 70
     1
102
RTVSPost2010Prop50
 90
       50
102
RTVSPost2010PropOp50
 70
     1
102
RTVSPost2010Prop51ColorIndex
 90
      256
102
RTVSPost2010Prop51ColorRGB
 90
-16777216
102
RTVSPost2010PropOp51
 70
     0
102
RTVSPost2010Prop52
140
1.0
102
RTVSPost2010PropOp52
 70
     0
102
RTVSPost2010Prop53
 90
        2
102
RTVSPost2010PropOp53
 70
     1
102
RTVSPost2010Prop54
  1
strokes_ogs.tif
102
RTVSPost2010PropOp54
 70
     1
102
RTVSPost2010Prop55
280
     0
102
RTVSPost2010PropOp55
 70
     1
102
RTVSPost2010Prop56
140
1.0
102
RTVSPost2010PropOp56
 70
     1
102
RTVSPost2010Prop57
140
1.0
102
RTVSPost2010PropOp57
 70
     1
  0
XRECORD
  5
346
102
{ACAD_REACTORS
330
345
102
}
330
345
100
AcDbXrecord
280
     1
102
RTVSPropertyOp0
 70
     1
102
RTVSPropertyOp1
 70
     1
102
RTVSPropertyOp2
 70
     1
102
RTVSPropertyOp3
 70
     1
102
RTVSPropertyOp4
 70
     1
102
RTVSPropertyOp5
 70
     1
102
RTVSPropertyOp6
 70
     1
102
RTVSPropertyOp7
 70
     1
102
RTVSPropertyOp8
 70
     1
102
RTVSPropertyOp9
 70
     1
102
RTVSPropertyOp10
 70
     1
102
RTVSPropertyOp11
 70
     1
102
RTVSPropertyOp12
 70
     1
102
RTVSPropertyOp13
 70
     1
102
RTVSPropertyOp14
 70
     1
102
RTVSPropertyOp15
 70
     1
102
RTVSPropertyOp16
 70
     1
102
RTVSPropertyOp17
 70
     1
102
RTVSPropertyOp18
 70
     1
102
RTVSPropertyOp19
 70
     1
102
RTVSPropertyOp20
 70
     1
102
RTVSPropertyOp21
 70
     1
102
RTVSPropertyOp22
 70
     1
102
RTVSPropertyOp23
 70
     1
102
RTVSPropertyOp24
 70
     1
102
RTVSPropertyOp25
 70
     1
102
RTVSPropertyOp26
 70
     1
102
RTVSPropertyOp27
 70
     1
102
RTVSPropertyOp28
 70
     1
102
RTVSPropertyOp29
 70
     1
102
RTVSPropertyOp30
 70
     1
102
RTVSPropertyOp31
 70
     1
102
RTVSPropertyOp32
 70
     1
102
RTVSPropertyOp33
 70
     1
102
RTVSPropertyOp34
 70
     1
102
RTVSPropertyOp35
 70
     1
102
RTVSPropertyOp36
 70
     1
102
RTVSPropertyOp37
 70
     1
102
RTVSPropertyOp38
 70
     1
102
RTVSPropertyOp39
 70
     1
102
RTVSPropertyOp40
 70
     1
102
RTVSPropertyOp41
 70
     1
102
RTVSPropertyOp42
 70
     1
102
RTVSPropertyOp43
 70
     1
102
RTVSPropertyOp44
 70
     1
102
RTVSPropertyOp45
 70
     1
102
RTVSPropertyOp46
 70
     1
102
RTVSPropertyOp47
 70
     1
102
RTVSPropertyOp48
 70
     1
102
RTVSPropertyOp49
 70
     1
102
RTVSPropertyOp50
 70
     1
102
RTVSPropertyOp51
 70
     0
102
RTVSPropertyOp52
 70
     0
102
RTVSPropertyOp53
 70
     1
102
RTVSPropertyOp54
 70
     1
102
RTVSPropertyOp55
 70
     1
102
RTVSPropertyOp56
 70
     1
102
RTVSPropertyOp57
 70
     1
102
RTVSPost2010Prop28
280
     0
102
RTVSPost2010PropOp28
 70
     1
102
RTVSPost2010Prop29
280
     1
102
RTVSPost2010PropOp29
 70
     1
102
RTVSPost2010Prop30
280
     1
102
RTVSPost2010PropOp30
 70
     1
102
RTVSPost2010Prop31
280
     0
102
RTVSPost2010PropOp31
 70
     1
102
RTVSPost2010Prop32
280
     0
102
RTVSPost2010PropOp32
 70
     1
102
RTVSPost2010Prop33
280
     0
102
RTVSPost2010PropOp33
 70
     1
102
RTVSPost2010Prop34
280
     0
102
RTVSPost2010PropOp34
 70
     1
102
RTVSPost2010Prop35
280
     0
102
RTVSPost2010PropOp35
 70
     1
102
RTVSPost2010Prop36
280
     0
102
RTVSPost2010PropOp36
 70
     1
102
RTVSPost2010Prop37
 90
       50
102
RTVSPost2010PropOp37
 70
     1
102
RTVSPost2010Prop38
140
0.0
102
RTVSPost2010PropOp38
 70
     1
102
RTVSPost2010Prop39
140
1.0
102
RTVSPost2010PropOp39
 70
     1
102
RTVSPost2010Prop40
 90
        0
102
RTVSPost2010PropOp40
 70
     1
102
RTVSPost2010Prop41ColorIndex
 90
       18
102
RTVSPost2010Prop41ColorRGB
 90
        0
102
RTVSPost2010PropOp41
 70
     1
102
RTVSPost2010Prop42
 90
       50
102
RTVSPost2010PropOp42
 70
     1
102
RTVSPost2010Prop43
 90
        3
102
RTVSPost2010PropOp43
 70
     1
102
RTVSPost2010Prop44ColorIndex
 90
        5
102
RTVSPost2010Prop44ColorRGB
 90
      255
102
RTVSPost2010PropOp44
 70
     1
102
RTVSPost2010Prop45
280
     0
102
RTVSPost2010PropOp45
 70
     1
102
RTVSPost2010Prop46
 90
       50
102
RTVSPost2010PropOp46
 70
     1
102
RTVSPost2010Prop47
 90
       50
102
RTVSPost2010PropOp47
 70
     1
102
RTVSPost2010Prop48
 90
       50
102
RTVSPost2010PropOp48
 70
     1
102
RTVSPost2010Prop49
280
     0
102
RTVSPost2010PropOp49
 70
     1
102
RTVSPost2010Prop50
 90
       50
102
RTVSPost2010PropOp50
 70
     1
102
RTVSPost2010Prop51ColorIndex
 90
      256
102
RTVSPost2010Prop51ColorRGB
 90
-16777216
102
RTVSPost2010PropOp51
 70
     0
102
RTVSPost2010Prop52
140
1.0
102
RTVSPost2010PropOp52
 70
     0
102
RTVSPost2010Prop53
 90
        2
102
RTVSPost2010PropOp53
 70
     1
102
RTVSPost2010Prop54
  1
strokes_ogs.tif
102
RTVSPost2010PropOp54
 70
     1
102
RTVSPost2010Prop55
280
     0
102
RTVSPost2010PropOp55
 70
     1
102
RTVSPost2010Prop56
140
1.0
102
RTVSPost2010PropOp56
 70
     1
102
RTVSPost2010Prop57
140
1.0
102
RTVSPost2010PropOp57
 70
     1
  0
XRECORD
  5
356
102
{ACAD_REACTORS
330
355
102
}
330
355
100
AcDbXrecord
280
     1
102
RTVSPropertyOp0
 70
     0
102
RTVSPropertyOp1
 70
     0
102
RTVSPropertyOp2
 70
     0
102
RTVSPropertyOp3
 70
     0
102
RTVSPropertyOp4
 70
     0
102
RTVSPropertyOp5
 70
     0
102
RTVSPropertyOp6
 70
     0
102
RTVSPropertyOp7
 70
     0
102
RTVSPropertyOp8
 70
     0
102
RTVSPropertyOp9
 70
     0
102
RTVSPropertyOp10
 70
     0
102
RTVSPropertyOp11
 70
     0
102
RTVSPropertyOp12
 70
     0
102
RTVSPropertyOp13
 70
     0
102
RTVSPropertyOp14
 70
     2
102
RTVSPropertyOp15
 70
     0
102
RTVSPropertyOp16
 70
     0
102
RTVSPropertyOp17
 70
     0
102
RTVSPropertyOp18
 70
     0
102
RTVSPropertyOp19
 70
     0
102
RTVSPropertyOp20
 70
     0
102
RTVSPropertyOp21
 70
     0
102
RTVSPropertyOp22
 70
     0
102
RTVSPropertyOp23
 70
     0
102
RTVSPropertyOp24
 70
     0
102
RTVSPropertyOp25
 70
     0
102
RTVSPropertyOp26
 70
     0
102
RTVSPropertyOp27
 70
     0
102
RTVSPropertyOp28
 70
     0
102
RTVSPropertyOp29
 70
     0
102
RTVSPropertyOp30
 70
     0
102
RTVSPropertyOp31
 70
     0
102
RTVSPropertyOp32
 70
     0
102
RTVSPropertyOp33
 70
     0
102
RTVSPropertyOp34
 70
     0
102
RTVSPropertyOp35
 70
     0
102
RTVSPropertyOp36
 70
     0
102
RTVSPropertyOp37
 70
     0
102
RTVSPropertyOp38
 70
     0
102
RTVSPropertyOp39
 70
     0
102
RTVSPropertyOp40
 70
     0
102
RTVSPropertyOp41
 70
     0
102
RTVSPropertyOp42
 70
     0
102
RTVSPropertyOp43
 70
     0
102
RTVSPropertyOp44
 70
     0
102
RTVSPropertyOp45
 70
     0
102
RTVSPropertyOp46
 70
     0
102
RTVSPropertyOp47
 70
     0
102
RTVSPropertyOp48
 70
     0
102
RTVSPropertyOp49
 70
     0
102
RTVSPropertyOp50
 70
     0
102
RTVSPropertyOp51
 70
     0
102
RTVSPropertyOp52
 70
     0
102
RTVSPropertyOp53
 70
     0
102
RTVSPropertyOp54
 70
     0
102
RTVSPropertyOp55
 70
     0
102
RTVSPropertyOp56
 70
     0
102
RTVSPropertyOp57
 70
     0
102
RTVSPost2010Prop28
280
     0
102
RTVSPost2010PropOp28
 70
     0
102
RTVSPost2010Prop29
280
     1
102
RTVSPost2010PropOp29
 70
     0
102
RTVSPost2010Prop30
280
     1
102
RTVSPost2010PropOp30
 70
     0
102
RTVSPost2010Prop31
280
     0
102
RTVSPost2010PropOp31
 70
     0
102
RTVSPost2010Prop32
280
     0
102
RTVSPost2010PropOp32
 70
     0
102
RTVSPost2010Prop33
280
     0
102
RTVSPost2010PropOp33
 70
     0
102
RTVSPost2010Prop34
280
     0
102
RTVSPost2010PropOp34
 70
     0
102
RTVSPost2010Prop35
280
     0
102
RTVSPost2010PropOp35
 70
     0
102
RTVSPost2010Prop36
280
     0
102
RTVSPost2010PropOp36
 70
     0
102
RTVSPost2010Prop37
 90
       50
102
RTVSPost2010PropOp37
 70
     0
102
RTVSPost2010Prop38
140
0.0
102
RTVSPost2010PropOp38
 70
     0
102
RTVSPost2010Prop39
140
1.0
102
RTVSPost2010PropOp39
 70
     0
102
RTVSPost2010Prop40
 90
        0
102
RTVSPost2010PropOp40
 70
     0
102
RTVSPost2010Prop41ColorIndex
 90
       18
102
RTVSPost2010Prop41ColorRGB
 90
        0
102
RTVSPost2010PropOp41
 70
     0
102
RTVSPost2010Prop42
 90
       50
102
RTVSPost2010PropOp42
 70
     0
102
RTVSPost2010Prop43
 90
        3
102
RTVSPost2010PropOp43
 70
     0
102
RTVSPost2010Prop44ColorIndex
 90
        5
102
RTVSPost2010Prop44ColorRGB
 90
      255
102
RTVSPost2010PropOp44
 70
     0
102
RTVSPost2010Prop45
280
     0
102
RTVSPost2010PropOp45
 70
     0
102
RTVSPost2010Prop46
 90
       50
102
RTVSPost2010PropOp46
 70
     0
102
RTVSPost2010Prop47
 90
       50
102
RTVSPost2010PropOp47
 70
     0
102
RTVSPost2010Prop48
 90
       50
102
RTVSPost2010PropOp48
 70
     0
102
RTVSPost2010Prop49
280
     0
102
RTVSPost2010PropOp49
 70
     0
102
RTVSPost2010Prop50
 90
       50
102
RTVSPost2010PropOp50
 70
     0
102
RTVSPost2010Prop51ColorIndex
 90
      256
102
RTVSPost2010Prop51ColorRGB
 90
-16777216
102
RTVSPost2010PropOp51
 70
     0
102
RTVSPost2010Prop52
140
1.0
102
RTVSPost2010PropOp52
 70
     0
102
RTVSPost2010Prop53
 90
        2
102
RTVSPost2010PropOp53
 70
     0
102
RTVSPost2010Prop54
  1
strokes_ogs.tif
102
RTVSPost2010PropOp54
 70
     0
102
RTVSPost2010Prop55
280
     0
102
RTVSPost2010PropOp55
 70
     0
102
RTVSPost2010Prop56
140
1.0
102
RTVSPost2010PropOp56
 70
     0
102
RTVSPost2010Prop57
140
1.0
102
RTVSPost2010PropOp57
 70
     0
  0
XRECORD
  5
34E
102
{ACAD_REACTORS
330
34D
102
}
330
34D
100
AcDbXrecord
280
     1
102
RTVSPropertyOp0
 70
     1
102
RTVSPropertyOp1
 70
     1
102
RTVSPropertyOp2
 70
     1
102
RTVSPropertyOp3
 70
     1
102
RTVSPropertyOp4
 70
     1
102
RTVSPropertyOp5
 70
     1
102
RTVSPropertyOp6
 70
     1
102
RTVSPropertyOp7
 70
     1
102
RTVSPropertyOp8
 70
     1
102
RTVSPropertyOp9
 70
     1
102
RTVSPropertyOp10
 70
     1
102
RTVSPropertyOp11
 70
     1
102
RTVSPropertyOp12
 70
     1
102
RTVSPropertyOp13
 70
     1
102
RTVSPropertyOp14
 70
     1
102
RTVSPropertyOp15
 70
     1
102
RTVSPropertyOp16
 70
     1
102
RTVSPropertyOp17
 70
     1
102
RTVSPropertyOp18
 70
     1
102
RTVSPropertyOp19
 70
     1
102
RTVSPropertyOp20
 70
     1
102
RTVSPropertyOp21
 70
     1
102
RTVSPropertyOp22
 70
     1
102
RTVSPropertyOp23
 70
     1
102
RTVSPropertyOp24
 70
     1
102
RTVSPropertyOp25
 70
     1
102
RTVSPropertyOp26
 70
     1
102
RTVSPropertyOp27
 70
     1
102
RTVSPropertyOp28
 70
     1
102
RTVSPropertyOp29
 70
     1
102
RTVSPropertyOp30
 70
     1
102
RTVSPropertyOp31
 70
     1
102
RTVSPropertyOp32
 70
     1
102
RTVSPropertyOp33
 70
     1
102
RTVSPropertyOp34
 70
     1
102
RTVSPropertyOp35
 70
     1
102
RTVSPropertyOp36
 70
     1
102
RTVSPropertyOp37
 70
     1
102
RTVSPropertyOp38
 70
     1
102
RTVSPropertyOp39
 70
     1
102
RTVSPropertyOp40
 70
     1
102
RTVSPropertyOp41
 70
     1
102
RTVSPropertyOp42
 70
     1
102
RTVSPropertyOp43
 70
     1
102
RTVSPropertyOp44
 70
     1
102
RTVSPropertyOp45
 70
     1
102
RTVSPropertyOp46
 70
     1
102
RTVSPropertyOp47
 70
     1
102
RTVSPropertyOp48
 70
     1
102
RTVSPropertyOp49
 70
     1
102
RTVSPropertyOp50
 70
     1
102
RTVSPropertyOp51
 70
     0
102
RTVSPropertyOp52
 70
     0
102
RTVSPropertyOp53
 70
     1
102
RTVSPropertyOp54
 70
     1
102
RTVSPropertyOp55
 70
     1
102
RTVSPropertyOp56
 70
     1
102
RTVSPropertyOp57
 70
     1
102
RTVSPost2010Prop28
280
     0
102
RTVSPost2010PropOp28
 70
     1
102
RTVSPost2010Prop29
280
     1
102
RTVSPost2010PropOp29
 70
     1
102
RTVSPost2010Prop30
280
     1
102
RTVSPost2010PropOp30
 70
     1
102
RTVSPost2010Prop31
280
     0
102
RTVSPost2010PropOp31
 70
     1
102
RTVSPost2010Prop32
280
     0
102
RTVSPost2010PropOp32
 70
     1
102
RTVSPost2010Prop33
280
     0
102
RTVSPost2010PropOp33
 70
     1
102
RTVSPost2010Prop34
280
     0
102
RTVSPost2010PropOp34
 70
     1
102
RTVSPost2010Prop35
280
     0
102
RTVSPost2010PropOp35
 70
     1
102
RTVSPost2010Prop36
280
     0
102
RTVSPost2010PropOp36
 70
     1
102
RTVSPost2010Prop37
 90
       50
102
RTVSPost2010PropOp37
 70
     1
102
RTVSPost2010Prop38
140
0.0
102
RTVSPost2010PropOp38
 70
     1
102
RTVSPost2010Prop39
140
1.0
102
RTVSPost2010PropOp39
 70
     1
102
RTVSPost2010Prop40
 90
        0
102
RTVSPost2010PropOp40
 70
     1
102
RTVSPost2010Prop41ColorIndex
 90
       18
102
RTVSPost2010Prop41ColorRGB
 90
        0
102
RTVSPost2010PropOp41
 70
     1
102
RTVSPost2010Prop42
 90
       50
102
RTVSPost2010PropOp42
 70
     1
102
RTVSPost2010Prop43
 90
        3
102
RTVSPost2010PropOp43
 70
     1
102
RTVSPost2010Prop44ColorIndex
 90
        5
102
RTVSPost2010Prop44ColorRGB
 90
      255
102
RTVSPost2010PropOp44
 70
     1
102
RTVSPost2010Prop45
280
     0
102
RTVSPost2010PropOp45
 70
     1
102
RTVSPost2010Prop46
 90
       50
102
RTVSPost2010PropOp46
 70
     1
102
RTVSPost2010Prop47
 90
       50
102
RTVSPost2010PropOp47
 70
     1
102
RTVSPost2010Prop48
 90
       50
102
RTVSPost2010PropOp48
 70
     1
102
RTVSPost2010Prop49
280
     0
102
RTVSPost2010PropOp49
 70
     1
102
RTVSPost2010Prop50
 90
       50
102
RTVSPost2010PropOp50
 70
     1
102
RTVSPost2010Prop51ColorIndex
 90
      256
102
RTVSPost2010Prop51ColorRGB
 90
-16777216
102
RTVSPost2010PropOp51
 70
     0
102
RTVSPost2010Prop52
140
1.0
102
RTVSPost2010PropOp52
 70
     0
102
RTVSPost2010Prop53
 90
        2
102
RTVSPost2010PropOp53
 70
     1
102
RTVSPost2010Prop54
  1
strokes_ogs.tif
102
RTVSPost2010PropOp54
 70
     1
102
RTVSPost2010Prop55
280
     0
102
RTVSPost2010PropOp55
 70
     1
102
RTVSPost2010Prop56
140
1.0
102
RTVSPost2010PropOp56
 70
     1
102
RTVSPost2010Prop57
140
1.0
102
RTVSPost2010PropOp57
 70
     1
  0
XRECORD
  5
332
102
{ACAD_REACTORS
330
331
102
}
330
331
100
AcDbXrecord
280
     1
102
RTVSPropertyOp0
 70
     1
102
RTVSPropertyOp1
 70
     1
102
RTVSPropertyOp2
 70
     1
102
RTVSPropertyOp3
 70
     1
102
RTVSPropertyOp4
 70
     1
102
RTVSPropertyOp5
 70
     1
102
RTVSPropertyOp6
 70
     1
102
RTVSPropertyOp7
 70
     1
102
RTVSPropertyOp8
 70
     1
102
RTVSPropertyOp9
 70
     1
102
RTVSPropertyOp10
 70
     1
102
RTVSPropertyOp11
 70
     1
102
RTVSPropertyOp12
 70
     1
102
RTVSPropertyOp13
 70
     1
102
RTVSPropertyOp14
 70
     1
102
RTVSPropertyOp15
 70
     1
102
RTVSPropertyOp16
 70
     1
102
RTVSPropertyOp17
 70
     1
102
RTVSPropertyOp18
 70
     1
102
RTVSPropertyOp19
 70
     1
102
RTVSPropertyOp20
 70
     1
102
RTVSPropertyOp21
 70
     1
102
RTVSPropertyOp22
 70
     1
102
RTVSPropertyOp23
 70
     1
102
RTVSPropertyOp24
 70
     1
102
RTVSPropertyOp25
 70
     1
102
RTVSPropertyOp26
 70
     1
102
RTVSPropertyOp27
 70
     1
102
RTVSPropertyOp28
 70
     1
102
RTVSPropertyOp29
 70
     1
102
RTVSPropertyOp30
 70
     1
102
RTVSPropertyOp31
 70
     1
102
RTVSPropertyOp32
 70
     1
102
RTVSPropertyOp33
 70
     1
102
RTVSPropertyOp34
 70
     1
102
RTVSPropertyOp35
 70
     1
102
RTVSPropertyOp36
 70
     1
102
RTVSPropertyOp37
 70
     1
102
RTVSPropertyOp38
 70
     1
102
RTVSPropertyOp39
 70
     1
102
RTVSPropertyOp40
 70
     1
102
RTVSPropertyOp41
 70
     1
102
RTVSPropertyOp42
 70
     1
102
RTVSPropertyOp43
 70
     1
102
RTVSPropertyOp44
 70
     1
102
RTVSPropertyOp45
 70
     1
102
RTVSPropertyOp46
 70
     1
102
RTVSPropertyOp47
 70
     1
102
RTVSPropertyOp48
 70
     1
102
RTVSPropertyOp49
 70
     1
102
RTVSPropertyOp50
 70
     1
102
RTVSPropertyOp51
 70
     0
102
RTVSPropertyOp52
 70
     0
102
RTVSPropertyOp53
 70
     1
102
RTVSPropertyOp54
 70
     1
102
RTVSPropertyOp55
 70
     1
102
RTVSPropertyOp56
 70
     1
102
RTVSPropertyOp57
 70
     1
102
RTVSPost2010Prop28
280
     0
102
RTVSPost2010PropOp28
 70
     1
102
RTVSPost2010Prop29
280
     1
102
RTVSPost2010PropOp29
 70
     1
102
RTVSPost2010Prop30
280
     1
102
RTVSPost2010PropOp30
 70
     1
102
RTVSPost2010Prop31
280
     0
102
RTVSPost2010PropOp31
 70
     1
102
RTVSPost2010Prop32
280
     0
102
RTVSPost2010PropOp32
 70
     1
102
RTVSPost2010Prop33
280
     0
102
RTVSPost2010PropOp33
 70
     1
102
RTVSPost2010Prop34
280
     0
102
RTVSPost2010PropOp34
 70
     1
102
RTVSPost2010Prop35
280
     0
102
RTVSPost2010PropOp35
 70
     1
102
RTVSPost2010Prop36
280
     0
102
RTVSPost2010PropOp36
 70
     1
102
RTVSPost2010Prop37
 90
       50
102
RTVSPost2010PropOp37
 70
     1
102
RTVSPost2010Prop38
140
0.0
102
RTVSPost2010PropOp38
 70
     1
102
RTVSPost2010Prop39
140
1.0
102
RTVSPost2010PropOp39
 70
     1
102
RTVSPost2010Prop40
 90
        0
102
RTVSPost2010PropOp40
 70
     1
102
RTVSPost2010Prop41ColorIndex
 90
       18
102
RTVSPost2010Prop41ColorRGB
 90
        0
102
RTVSPost2010PropOp41
 70
     1
102
RTVSPost2010Prop42
 90
       50
102
RTVSPost2010PropOp42
 70
     1
102
RTVSPost2010Prop43
 90
        3
102
RTVSPost2010PropOp43
 70
     1
102
RTVSPost2010Prop44ColorIndex
 90
        5
102
RTVSPost2010Prop44ColorRGB
 90
      255
102
RTVSPost2010PropOp44
 70
     1
102
RTVSPost2010Prop45
280
     0
102
RTVSPost2010PropOp45
 70
     1
102
RTVSPost2010Prop46
 90
       50
102
RTVSPost2010PropOp46
 70
     1
102
RTVSPost2010Prop47
 90
       50
102
RTVSPost2010PropOp47
 70
     1
102
RTVSPost2010Prop48
 90
       50
102
RTVSPost2010PropOp48
 70
     1
102
RTVSPost2010Prop49
280
     0
102
RTVSPost2010PropOp49
 70
     1
102
RTVSPost2010Prop50
 90
       50
102
RTVSPost2010PropOp50
 70
     1
102
RTVSPost2010Prop51ColorIndex
 90
      256
102
RTVSPost2010Prop51ColorRGB
 90
-16777216
102
RTVSPost2010PropOp51
 70
     0
102
RTVSPost2010Prop52
140
1.0
102
RTVSPost2010PropOp52
 70
     0
102
RTVSPost2010Prop53
 90
        2
102
RTVSPost2010PropOp53
 70
     1
102
RTVSPost2010Prop54
  1
strokes_ogs.tif
102
RTVSPost2010PropOp54
 70
     1
102
RTVSPost2010Prop55
280
     0
102
RTVSPost2010PropOp55
 70
     1
102
RTVSPost2010Prop56
140
1.0
102
RTVSPost2010PropOp56
 70
     1
102
RTVSPost2010Prop57
140
1.0
102
RTVSPost2010PropOp57
 70
     1
  0
XRECORD
  5
334
102
{ACAD_REACTORS
330
333
102
}
330
333
100
AcDbXrecord
280
     1
102
RTVSPropertyOp0
 70
     1
102
RTVSPropertyOp1
 70
     1
102
RTVSPropertyOp2
 70
     1
102
RTVSPropertyOp3
 70
     1
102
RTVSPropertyOp4
 70
     1
102
RTVSPropertyOp5
 70
     1
102
RTVSPropertyOp6
 70
     1
102
RTVSPropertyOp7
 70
     1
102
RTVSPropertyOp8
 70
     1
102
RTVSPropertyOp9
 70
     1
102
RTVSPropertyOp10
 70
     1
102
RTVSPropertyOp11
 70
     1
102
RTVSPropertyOp12
 70
     1
102
RTVSPropertyOp13
 70
     1
102
RTVSPropertyOp14
 70
     1
102
RTVSPropertyOp15
 70
     1
102
RTVSPropertyOp16
 70
     1
102
RTVSPropertyOp17
 70
     1
102
RTVSPropertyOp18
 70
     1
102
RTVSPropertyOp19
 70
     1
102
RTVSPropertyOp20
 70
     1
102
RTVSPropertyOp21
 70
     1
102
RTVSPropertyOp22
 70
     1
102
RTVSPropertyOp23
 70
     1
102
RTVSPropertyOp24
 70
     1
102
RTVSPropertyOp25
 70
     1
102
RTVSPropertyOp26
 70
     1
102
RTVSPropertyOp27
 70
     1
102
RTVSPropertyOp28
 70
     1
102
RTVSPropertyOp29
 70
     1
102
RTVSPropertyOp30
 70
     1
102
RTVSPropertyOp31
 70
     1
102
RTVSPropertyOp32
 70
     1
102
RTVSPropertyOp33
 70
     1
102
RTVSPropertyOp34
 70
     1
102
RTVSPropertyOp35
 70
     1
102
RTVSPropertyOp36
 70
     1
102
RTVSPropertyOp37
 70
     1
102
RTVSPropertyOp38
 70
     1
102
RTVSPropertyOp39
 70
     1
102
RTVSPropertyOp40
 70
     1
102
RTVSPropertyOp41
 70
     1
102
RTVSPropertyOp42
 70
     1
102
RTVSPropertyOp43
 70
     1
102
RTVSPropertyOp44
 70
     1
102
RTVSPropertyOp45
 70
     1
102
RTVSPropertyOp46
 70
     1
102
RTVSPropertyOp47
 70
     1
102
RTVSPropertyOp48
 70
     1
102
RTVSPropertyOp49
 70
     1
102
RTVSPropertyOp50
 70
     1
102
RTVSPropertyOp51
 70
     0
102
RTVSPropertyOp52
 70
     0
102
RTVSPropertyOp53
 70
     1
102
RTVSPropertyOp54
 70
     1
102
RTVSPropertyOp55
 70
     1
102
RTVSPropertyOp56
 70
     1
102
RTVSPropertyOp57
 70
     1
102
RTVSPost2010Prop28
280
     0
102
RTVSPost2010PropOp28
 70
     1
102
RTVSPost2010Prop29
280
     1
102
RTVSPost2010PropOp29
 70
     1
102
RTVSPost2010Prop30
280
     1
102
RTVSPost2010PropOp30
 70
     1
102
RTVSPost2010Prop31
280
     0
102
RTVSPost2010PropOp31
 70
     1
102
RTVSPost2010Prop32
280
     0
102
RTVSPost2010PropOp32
 70
     1
102
RTVSPost2010Prop33
280
     0
102
RTVSPost2010PropOp33
 70
     1
102
RTVSPost2010Prop34
280
     0
102
RTVSPost2010PropOp34
 70
     1
102
RTVSPost2010Prop35
280
     0
102
RTVSPost2010PropOp35
 70
     1
102
RTVSPost2010Prop36
280
     0
102
RTVSPost2010PropOp36
 70
     1
102
RTVSPost2010Prop37
 90
       50
102
RTVSPost2010PropOp37
 70
     1
102
RTVSPost2010Prop38
140
0.0
102
RTVSPost2010PropOp38
 70
     1
102
RTVSPost2010Prop39
140
1.0
102
RTVSPost2010PropOp39
 70
     1
102
RTVSPost2010Prop40
 90
        0
102
RTVSPost2010PropOp40
 70
     1
102
RTVSPost2010Prop41ColorIndex
 90
       18
102
RTVSPost2010Prop41ColorRGB
 90
        0
102
RTVSPost2010PropOp41
 70
     1
102
RTVSPost2010Prop42
 90
       50
102
RTVSPost2010PropOp42
 70
     1
102
RTVSPost2010Prop43
 90
        3
102
RTVSPost2010PropOp43
 70
     1
102
RTVSPost2010Prop44ColorIndex
 90
        5
102
RTVSPost2010Prop44ColorRGB
 90
      255
102
RTVSPost2010PropOp44
 70
     1
102
RTVSPost2010Prop45
280
     0
102
RTVSPost2010PropOp45
 70
     1
102
RTVSPost2010Prop46
 90
       50
102
RTVSPost2010PropOp46
 70
     1
102
RTVSPost2010Prop47
 90
       50
102
RTVSPost2010PropOp47
 70
     1
102
RTVSPost2010Prop48
 90
       50
102
RTVSPost2010PropOp48
 70
     1
102
RTVSPost2010Prop49
280
     0
102
RTVSPost2010PropOp49
 70
     1
102
RTVSPost2010Prop50
 90
       50
102
RTVSPost2010PropOp50
 70
     1
102
RTVSPost2010Prop51ColorIndex
 90
      256
102
RTVSPost2010Prop51ColorRGB
 90
-16777216
102
RTVSPost2010PropOp51
 70
     0
102
RTVSPost2010Prop52
140
1.0
102
RTVSPost2010PropOp52
 70
     0
102
RTVSPost2010Prop53
 90
        2
102
RTVSPost2010PropOp53
 70
     1
102
RTVSPost2010Prop54
  1
strokes_ogs.tif
102
RTVSPost2010PropOp54
 70
     1
102
RTVSPost2010Prop55
280
     0
102
RTVSPost2010PropOp55
 70
     1
102
RTVSPost2010Prop56
140
1.0
102
RTVSPost2010PropOp56
 70
     1
102
RTVSPost2010Prop57
140
1.0
102
RTVSPost2010PropOp57
 70
     1
  0
XRECORD
  5
336
102
{ACAD_REACTORS
330
335
102
}
330
335
100
AcDbXrecord
280
     1
102
RTVSPropertyOp0
 70
     1
102
RTVSPropertyOp1
 70
     1
102
RTVSPropertyOp2
 70
     1
102
RTVSPropertyOp3
 70
     1
102
RTVSPropertyOp4
 70
     1
102
RTVSPropertyOp5
 70
     1
102
RTVSPropertyOp6
 70
     1
102
RTVSPropertyOp7
 70
     1
102
RTVSPropertyOp8
 70
     1
102
RTVSPropertyOp9
 70
     1
102
RTVSPropertyOp10
 70
     1
102
RTVSPropertyOp11
 70
     1
102
RTVSPropertyOp12
 70
     1
102
RTVSPropertyOp13
 70
     1
102
RTVSPropertyOp14
 70
     1
102
RTVSPropertyOp15
 70
     1
102
RTVSPropertyOp16
 70
     1
102
RTVSPropertyOp17
 70
     1
102
RTVSPropertyOp18
 70
     1
102
RTVSPropertyOp19
 70
     1
102
RTVSPropertyOp20
 70
     1
102
RTVSPropertyOp21
 70
     1
102
RTVSPropertyOp22
 70
     1
102
RTVSPropertyOp23
 70
     1
102
RTVSPropertyOp24
 70
     1
102
RTVSPropertyOp25
 70
     1
102
RTVSPropertyOp26
 70
     1
102
RTVSPropertyOp27
 70
     1
102
RTVSPropertyOp28
 70
     1
102
RTVSPropertyOp29
 70
     1
102
RTVSPropertyOp30
 70
     1
102
RTVSPropertyOp31
 70
     1
102
RTVSPropertyOp32
 70
     1
102
RTVSPropertyOp33
 70
     1
102
RTVSPropertyOp34
 70
     1
102
RTVSPropertyOp35
 70
     1
102
RTVSPropertyOp36
 70
     1
102
RTVSPropertyOp37
 70
     1
102
RTVSPropertyOp38
 70
     1
102
RTVSPropertyOp39
 70
     1
102
RTVSPropertyOp40
 70
     1
102
RTVSPropertyOp41
 70
     1
102
RTVSPropertyOp42
 70
     1
102
RTVSPropertyOp43
 70
     1
102
RTVSPropertyOp44
 70
     1
102
RTVSPropertyOp45
 70
     1
102
RTVSPropertyOp46
 70
     1
102
RTVSPropertyOp47
 70
     1
102
RTVSPropertyOp48
 70
     1
102
RTVSPropertyOp49
 70
     1
102
RTVSPropertyOp50
 70
     1
102
RTVSPropertyOp51
 70
     0
102
RTVSPropertyOp52
 70
     0
102
RTVSPropertyOp53
 70
     1
102
RTVSPropertyOp54
 70
     1
102
RTVSPropertyOp55
 70
     1
102
RTVSPropertyOp56
 70
     1
102
RTVSPropertyOp57
 70
     1
102
RTVSPost2010Prop28
280
     0
102
RTVSPost2010PropOp28
 70
     1
102
RTVSPost2010Prop29
280
     1
102
RTVSPost2010PropOp29
 70
     1
102
RTVSPost2010Prop30
280
     1
102
RTVSPost2010PropOp30
 70
     1
102
RTVSPost2010Prop31
280
     0
102
RTVSPost2010PropOp31
 70
     1
102
RTVSPost2010Prop32
280
     0
102
RTVSPost2010PropOp32
 70
     1
102
RTVSPost2010Prop33
280
     0
102
RTVSPost2010PropOp33
 70
     1
102
RTVSPost2010Prop34
280
     0
102
RTVSPost2010PropOp34
 70
     1
102
RTVSPost2010Prop35
280
     0
102
RTVSPost2010PropOp35
 70
     1
102
RTVSPost2010Prop36
280
     0
102
RTVSPost2010PropOp36
 70
     1
102
RTVSPost2010Prop37
 90
       50
102
RTVSPost2010PropOp37
 70
     1
102
RTVSPost2010Prop38
140
0.0
102
RTVSPost2010PropOp38
 70
     1
102
RTVSPost2010Prop39
140
1.0
102
RTVSPost2010PropOp39
 70
     1
102
RTVSPost2010Prop40
 90
        0
102
RTVSPost2010PropOp40
 70
     1
102
RTVSPost2010Prop41ColorIndex
 90
       18
102
RTVSPost2010Prop41ColorRGB
 90
        0
102
RTVSPost2010PropOp41
 70
     1
102
RTVSPost2010Prop42
 90
       50
102
RTVSPost2010PropOp42
 70
     1
102
RTVSPost2010Prop43
 90
        3
102
RTVSPost2010PropOp43
 70
     1
102
RTVSPost2010Prop44ColorIndex
 90
        5
102
RTVSPost2010Prop44ColorRGB
 90
      255
102
RTVSPost2010PropOp44
 70
     1
102
RTVSPost2010Prop45
280
     0
102
RTVSPost2010PropOp45
 70
     1
102
RTVSPost2010Prop46
 90
       50
102
RTVSPost2010PropOp46
 70
     1
102
RTVSPost2010Prop47
 90
       50
102
RTVSPost2010PropOp47
 70
     1
102
RTVSPost2010Prop48
 90
       50
102
RTVSPost2010PropOp48
 70
     1
102
RTVSPost2010Prop49
280
     0
102
RTVSPost2010PropOp49
 70
     1
102
RTVSPost2010Prop50
 90
       50
102
RTVSPost2010PropOp50
 70
     1
102
RTVSPost2010Prop51ColorIndex
 90
      256
102
RTVSPost2010Prop51ColorRGB
 90
-16777216
102
RTVSPost2010PropOp51
 70
     0
102
RTVSPost2010Prop52
140
1.0
102
RTVSPost2010PropOp52
 70
     0
102
RTVSPost2010Prop53
 90
        2
102
RTVSPost2010PropOp53
 70
     1
102
RTVSPost2010Prop54
  1
strokes_ogs.tif
102
RTVSPost2010PropOp54
 70
     1
102
RTVSPost2010Prop55
280
     0
102
RTVSPost2010PropOp55
 70
     1
102
RTVSPost2010Prop56
140
1.0
102
RTVSPost2010PropOp56
 70
     1
102
RTVSPost2010Prop57
140
1.0
102
RTVSPost2010PropOp57
 70
     1
  0
XRECORD
  5
338
102
{ACAD_REACTORS
330
337
102
}
330
337
100
AcDbXrecord
280
     1
102
RTVSPropertyOp0
 70
     1
102
RTVSPropertyOp1
 70
     1
102
RTVSPropertyOp2
 70
     1
102
RTVSPropertyOp3
 70
     1
102
RTVSPropertyOp4
 70
     1
102
RTVSPropertyOp5
 70
     1
102
RTVSPropertyOp6
 70
     1
102
RTVSPropertyOp7
 70
     1
102
RTVSPropertyOp8
 70
     1
102
RTVSPropertyOp9
 70
     1
102
RTVSPropertyOp10
 70
     1
102
RTVSPropertyOp11
 70
     1
102
RTVSPropertyOp12
 70
     1
102
RTVSPropertyOp13
 70
     1
102
RTVSPropertyOp14
 70
     1
102
RTVSPropertyOp15
 70
     1
102
RTVSPropertyOp16
 70
     1
102
RTVSPropertyOp17
 70
     1
102
RTVSPropertyOp18
 70
     1
102
RTVSPropertyOp19
 70
     1
102
RTVSPropertyOp20
 70
     1
102
RTVSPropertyOp21
 70
     1
102
RTVSPropertyOp22
 70
     1
102
RTVSPropertyOp23
 70
     1
102
RTVSPropertyOp24
 70
     1
102
RTVSPropertyOp25
 70
     1
102
RTVSPropertyOp26
 70
     1
102
RTVSPropertyOp27
 70
     1
102
RTVSPropertyOp28
 70
     1
102
RTVSPropertyOp29
 70
     1
102
RTVSPropertyOp30
 70
     1
102
RTVSPropertyOp31
 70
     1
102
RTVSPropertyOp32
 70
     1
102
RTVSPropertyOp33
 70
     1
102
RTVSPropertyOp34
 70
     1
102
RTVSPropertyOp35
 70
     1
102
RTVSPropertyOp36
 70
     1
102
RTVSPropertyOp37
 70
     1
102
RTVSPropertyOp38
 70
     1
102
RTVSPropertyOp39
 70
     1
102
RTVSPropertyOp40
 70
     1
102
RTVSPropertyOp41
 70
     1
102
RTVSPropertyOp42
 70
     1
102
RTVSPropertyOp43
 70
     1
102
RTVSPropertyOp44
 70
     1
102
RTVSPropertyOp45
 70
     1
102
RTVSPropertyOp46
 70
     1
102
RTVSPropertyOp47
 70
     1
102
RTVSPropertyOp48
 70
     1
102
RTVSPropertyOp49
 70
     1
102
RTVSPropertyOp50
 70
     1
102
RTVSPropertyOp51
 70
     0
102
RTVSPropertyOp52
 70
     0
102
RTVSPropertyOp53
 70
     1
102
RTVSPropertyOp54
 70
     1
102
RTVSPropertyOp55
 70
     1
102
RTVSPropertyOp56
 70
     1
102
RTVSPropertyOp57
 70
     1
102
RTVSPost2010Prop28
280
     0
102
RTVSPost2010PropOp28
 70
     1
102
RTVSPost2010Prop29
280
     1
102
RTVSPost2010PropOp29
 70
     1
102
RTVSPost2010Prop30
280
     1
102
RTVSPost2010PropOp30
 70
     1
102
RTVSPost2010Prop31
280
     0
102
RTVSPost2010PropOp31
 70
     1
102
RTVSPost2010Prop32
280
     0
102
RTVSPost2010PropOp32
 70
     1
102
RTVSPost2010Prop33
280
     0
102
RTVSPost2010PropOp33
 70
     1
102
RTVSPost2010Prop34
280
     0
102
RTVSPost2010PropOp34
 70
     1
102
RTVSPost2010Prop35
280
     0
102
RTVSPost2010PropOp35
 70
     1
102
RTVSPost2010Prop36
280
     0
102
RTVSPost2010PropOp36
 70
     1
102
RTVSPost2010Prop37
 90
       50
102
RTVSPost2010PropOp37
 70
     1
102
RTVSPost2010Prop38
140
0.0
102
RTVSPost2010PropOp38
 70
     1
102
RTVSPost2010Prop39
140
1.0
102
RTVSPost2010PropOp39
 70
     1
102
RTVSPost2010Prop40
 90
        0
102
RTVSPost2010PropOp40
 70
     1
102
RTVSPost2010Prop41ColorIndex
 90
       18
102
RTVSPost2010Prop41ColorRGB
 90
        0
102
RTVSPost2010PropOp41
 70
     1
102
RTVSPost2010Prop42
 90
       50
102
RTVSPost2010PropOp42
 70
     1
102
RTVSPost2010Prop43
 90
        3
102
RTVSPost2010PropOp43
 70
     1
102
RTVSPost2010Prop44ColorIndex
 90
        5
102
RTVSPost2010Prop44ColorRGB
 90
      255
102
RTVSPost2010PropOp44
 70
     1
102
RTVSPost2010Prop45
280
     0
102
RTVSPost2010PropOp45
 70
     1
102
RTVSPost2010Prop46
 90
       50
102
RTVSPost2010PropOp46
 70
     1
102
RTVSPost2010Prop47
 90
       50
102
RTVSPost2010PropOp47
 70
     1
102
RTVSPost2010Prop48
 90
       50
102
RTVSPost2010PropOp48
 70
     1
102
RTVSPost2010Prop49
280
     0
102
RTVSPost2010PropOp49
 70
     1
102
RTVSPost2010Prop50
 90
       50
102
RTVSPost2010PropOp50
 70
     1
102
RTVSPost2010Prop51ColorIndex
 90
      256
102
RTVSPost2010Prop51ColorRGB
 90
-16777216
102
RTVSPost2010PropOp51
 70
     0
102
RTVSPost2010Prop52
140
1.0
102
RTVSPost2010PropOp52
 70
     0
102
RTVSPost2010Prop53
 90
        2
102
RTVSPost2010PropOp53
 70
     1
102
RTVSPost2010Prop54
  1
strokes_ogs.tif
102
RTVSPost2010PropOp54
 70
     1
102
RTVSPost2010Prop55
280
     0
102
RTVSPost2010PropOp55
 70
     1
102
RTVSPost2010Prop56
140
1.0
102
RTVSPost2010PropOp56
 70
     1
102
RTVSPost2010Prop57
140
1.0
102
RTVSPost2010PropOp57
 70
     1
  0
XRECORD
  5
33E
102
{ACAD_REACTORS
330
33D
102
}
330
33D
100
AcDbXrecord
280
     1
102
RTVSPropertyOp0
 70
     1
102
RTVSPropertyOp1
 70
     1
102
RTVSPropertyOp2
 70
     1
102
RTVSPropertyOp3
 70
     1
102
RTVSPropertyOp4
 70
     1
102
RTVSPropertyOp5
 70
     1
102
RTVSPropertyOp6
 70
     1
102
RTVSPropertyOp7
 70
     1
102
RTVSPropertyOp8
 70
     1
102
RTVSPropertyOp9
 70
     1
102
RTVSPropertyOp10
 70
     1
102
RTVSPropertyOp11
 70
     1
102
RTVSPropertyOp12
 70
     1
102
RTVSPropertyOp13
 70
     1
102
RTVSPropertyOp14
 70
     1
102
RTVSPropertyOp15
 70
     1
102
RTVSPropertyOp16
 70
     1
102
RTVSPropertyOp17
 70
     1
102
RTVSPropertyOp18
 70
     1
102
RTVSPropertyOp19
 70
     1
102
RTVSPropertyOp20
 70
     1
102
RTVSPropertyOp21
 70
     1
102
RTVSPropertyOp22
 70
     1
102
RTVSPropertyOp23
 70
     1
102
RTVSPropertyOp24
 70
     1
102
RTVSPropertyOp25
 70
     1
102
RTVSPropertyOp26
 70
     1
102
RTVSPropertyOp27
 70
     1
102
RTVSPropertyOp28
 70
     1
102
RTVSPropertyOp29
 70
     1
102
RTVSPropertyOp30
 70
     1
102
RTVSPropertyOp31
 70
     1
102
RTVSPropertyOp32
 70
     1
102
RTVSPropertyOp33
 70
     1
102
RTVSPropertyOp34
 70
     1
102
RTVSPropertyOp35
 70
     1
102
RTVSPropertyOp36
 70
     1
102
RTVSPropertyOp37
 70
     1
102
RTVSPropertyOp38
 70
     1
102
RTVSPropertyOp39
 70
     1
102
RTVSPropertyOp40
 70
     1
102
RTVSPropertyOp41
 70
     1
102
RTVSPropertyOp42
 70
     1
102
RTVSPropertyOp43
 70
     1
102
RTVSPropertyOp44
 70
     1
102
RTVSPropertyOp45
 70
     1
102
RTVSPropertyOp46
 70
     1
102
RTVSPropertyOp47
 70
     1
102
RTVSPropertyOp48
 70
     1
102
RTVSPropertyOp49
 70
     1
102
RTVSPropertyOp50
 70
     1
102
RTVSPropertyOp51
 70
     0
102
RTVSPropertyOp52
 70
     0
102
RTVSPropertyOp53
 70
     1
102
RTVSPropertyOp54
 70
     1
102
RTVSPropertyOp55
 70
     1
102
RTVSPropertyOp56
 70
     1
102
RTVSPropertyOp57
 70
     1
102
RTVSPost2010Prop28
280
     0
102
RTVSPost2010PropOp28
 70
     1
102
RTVSPost2010Prop29
280
     1
102
RTVSPost2010PropOp29
 70
     1
102
RTVSPost2010Prop30
280
     1
102
RTVSPost2010PropOp30
 70
     1
102
RTVSPost2010Prop31
280
     0
102
RTVSPost2010PropOp31
 70
     1
102
RTVSPost2010Prop32
280
     0
102
RTVSPost2010PropOp32
 70
     1
102
RTVSPost2010Prop33
280
     0
102
RTVSPost2010PropOp33
 70
     1
102
RTVSPost2010Prop34
280
     0
102
RTVSPost2010PropOp34
 70
     1
102
RTVSPost2010Prop35
280
     0
102
RTVSPost2010PropOp35
 70
     1
102
RTVSPost2010Prop36
280
     0
102
RTVSPost2010PropOp36
 70
     1
102
RTVSPost2010Prop37
 90
       50
102
RTVSPost2010PropOp37
 70
     1
102
RTVSPost2010Prop38
140
0.0
102
RTVSPost2010PropOp38
 70
     1
102
RTVSPost2010Prop39
140
1.0
102
RTVSPost2010PropOp39
 70
     1
102
RTVSPost2010Prop40
 90
        0
102
RTVSPost2010PropOp40
 70
     1
102
RTVSPost2010Prop41ColorIndex
 90
       18
102
RTVSPost2010Prop41ColorRGB
 90
        0
102
RTVSPost2010PropOp41
 70
     1
102
RTVSPost2010Prop42
 90
       50
102
RTVSPost2010PropOp42
 70
     1
102
RTVSPost2010Prop43
 90
        3
102
RTVSPost2010PropOp43
 70
     1
102
RTVSPost2010Prop44ColorIndex
 90
        5
102
RTVSPost2010Prop44ColorRGB
 90
      255
102
RTVSPost2010PropOp44
 70
     1
102
RTVSPost2010Prop45
280
     0
102
RTVSPost2010PropOp45
 70
     1
102
RTVSPost2010Prop46
 90
       50
102
RTVSPost2010PropOp46
 70
     1
102
RTVSPost2010Prop47
 90
       50
102
RTVSPost2010PropOp47
 70
     1
102
RTVSPost2010Prop48
 90
       50
102
RTVSPost2010PropOp48
 70
     1
102
RTVSPost2010Prop49
280
     0
102
RTVSPost2010PropOp49
 70
     1
102
RTVSPost2010Prop50
 90
       50
102
RTVSPost2010PropOp50
 70
     1
102
RTVSPost2010Prop51ColorIndex
 90
      256
102
RTVSPost2010Prop51ColorRGB
 90
-16777216
102
RTVSPost2010PropOp51
 70
     0
102
RTVSPost2010Prop52
140
1.0
102
RTVSPost2010PropOp52
 70
     0
102
RTVSPost2010Prop53
 90
        2
102
RTVSPost2010PropOp53
 70
     1
102
RTVSPost2010Prop54
  1
strokes_ogs.tif
102
RTVSPost2010PropOp54
 70
     1
102
RTVSPost2010Prop55
280
     0
102
RTVSPost2010PropOp55
 70
     1
102
RTVSPost2010Prop56
140
1.0
102
RTVSPost2010PropOp56
 70
     1
102
RTVSPost2010Prop57
140
1.0
102
RTVSPost2010PropOp57
 70
     1
  0
XRECORD
  5
352
102
{ACAD_REACTORS
330
351
102
}
330
351
100
AcDbXrecord
280
     1
102
RTVSPropertyOp0
 70
     0
102
RTVSPropertyOp1
 70
     0
102
RTVSPropertyOp2
 70
     0
102
RTVSPropertyOp3
 70
     0
102
RTVSPropertyOp4
 70
     0
102
RTVSPropertyOp5
 70
     0
102
RTVSPropertyOp6
 70
     0
102
RTVSPropertyOp7
 70
     0
102
RTVSPropertyOp8
 70
     0
102
RTVSPropertyOp9
 70
     0
102
RTVSPropertyOp10
 70
     0
102
RTVSPropertyOp11
 70
     0
102
RTVSPropertyOp12
 70
     0
102
RTVSPropertyOp13
 70
     0
102
RTVSPropertyOp14
 70
     2
102
RTVSPropertyOp15
 70
     0
102
RTVSPropertyOp16
 70
     0
102
RTVSPropertyOp17
 70
     0
102
RTVSPropertyOp18
 70
     0
102
RTVSPropertyOp19
 70
     0
102
RTVSPropertyOp20
 70
     0
102
RTVSPropertyOp21
 70
     0
102
RTVSPropertyOp22
 70
     0
102
RTVSPropertyOp23
 70
     0
102
RTVSPropertyOp24
 70
     0
102
RTVSPropertyOp25
 70
     0
102
RTVSPropertyOp26
 70
     0
102
RTVSPropertyOp27
 70
     0
102
RTVSPropertyOp28
 70
     0
102
RTVSPropertyOp29
 70
     0
102
RTVSPropertyOp30
 70
     0
102
RTVSPropertyOp31
 70
     0
102
RTVSPropertyOp32
 70
     0
102
RTVSPropertyOp33
 70
     0
102
RTVSPropertyOp34
 70
     0
102
RTVSPropertyOp35
 70
     0
102
RTVSPropertyOp36
 70
     0
102
RTVSPropertyOp37
 70
     0
102
RTVSPropertyOp38
 70
     0
102
RTVSPropertyOp39
 70
     0
102
RTVSPropertyOp40
 70
     0
102
RTVSPropertyOp41
 70
     0
102
RTVSPropertyOp42
 70
     0
102
RTVSPropertyOp43
 70
     0
102
RTVSPropertyOp44
 70
     0
102
RTVSPropertyOp45
 70
     0
102
RTVSPropertyOp46
 70
     0
102
RTVSPropertyOp47
 70
     0
102
RTVSPropertyOp48
 70
     0
102
RTVSPropertyOp49
 70
     0
102
RTVSPropertyOp50
 70
     0
102
RTVSPropertyOp51
 70
     0
102
RTVSPropertyOp52
 70
     0
102
RTVSPropertyOp53
 70
     0
102
RTVSPropertyOp54
 70
     0
102
RTVSPropertyOp55
 70
     0
102
RTVSPropertyOp56
 70
     0
102
RTVSPropertyOp57
 70
     0
102
RTVSPost2010Prop28
280
     0
102
RTVSPost2010PropOp28
 70
     0
102
RTVSPost2010Prop29
280
     1
102
RTVSPost2010PropOp29
 70
     0
102
RTVSPost2010Prop30
280
     1
102
RTVSPost2010PropOp30
 70
     0
102
RTVSPost2010Prop31
280
     0
102
RTVSPost2010PropOp31
 70
     0
102
RTVSPost2010Prop32
280
     0
102
RTVSPost2010PropOp32
 70
     0
102
RTVSPost2010Prop33
280
     0
102
RTVSPost2010PropOp33
 70
     0
102
RTVSPost2010Prop34
280
     0
102
RTVSPost2010PropOp34
 70
     0
102
RTVSPost2010Prop35
280
     0
102
RTVSPost2010PropOp35
 70
     0
102
RTVSPost2010Prop36
280
     0
102
RTVSPost2010PropOp36
 70
     0
102
RTVSPost2010Prop37
 90
       50
102
RTVSPost2010PropOp37
 70
     0
102
RTVSPost2010Prop38
140
0.0
102
RTVSPost2010PropOp38
 70
     0
102
RTVSPost2010Prop39
140
1.0
102
RTVSPost2010PropOp39
 70
     0
102
RTVSPost2010Prop40
 90
        0
102
RTVSPost2010PropOp40
 70
     0
102
RTVSPost2010Prop41ColorIndex
 90
       18
102
RTVSPost2010Prop41ColorRGB
 90
        0
102
RTVSPost2010PropOp41
 70
     0
102
RTVSPost2010Prop42
 90
       50
102
RTVSPost2010PropOp42
 70
     0
102
RTVSPost2010Prop43
 90
        3
102
RTVSPost2010PropOp43
 70
     0
102
RTVSPost2010Prop44ColorIndex
 90
        5
102
RTVSPost2010Prop44ColorRGB
 90
      255
102
RTVSPost2010PropOp44
 70
     0
102
RTVSPost2010Prop45
280
     0
102
RTVSPost2010PropOp45
 70
     0
102
RTVSPost2010Prop46
 90
       50
102
RTVSPost2010PropOp46
 70
     0
102
RTVSPost2010Prop47
 90
       50
102
RTVSPost2010PropOp47
 70
     0
102
RTVSPost2010Prop48
 90
       50
102
RTVSPost2010PropOp48
 70
     0
102
RTVSPost2010Prop49
280
     0
102
RTVSPost2010PropOp49
 70
     0
102
RTVSPost2010Prop50
 90
       50
102
RTVSPost2010PropOp50
 70
     0
102
RTVSPost2010Prop51ColorIndex
 90
      256
102
RTVSPost2010Prop51ColorRGB
 90
-16777216
102
RTVSPost2010PropOp51
 70
     0
102
RTVSPost2010Prop52
140
1.0
102
RTVSPost2010PropOp52
 70
     0
102
RTVSPost2010Prop53
 90
        2
102
RTVSPost2010PropOp53
 70
     0
102
RTVSPost2010Prop54
  1
strokes_ogs.tif
102
RTVSPost2010PropOp54
 70
     0
102
RTVSPost2010Prop55
280
     0
102
RTVSPost2010PropOp55
 70
     0
102
RTVSPost2010Prop56
140
1.0
102
RTVSPost2010PropOp56
 70
     0
102
RTVSPost2010Prop57
140
1.0
102
RTVSPost2010PropOp57
 70
     0
  0
XRECORD
  5
34C
102
{ACAD_REACTORS
330
34B
102
}
330
34B
100
AcDbXrecord
280
     1
102
RTVSPropertyOp0
 70
     1
102
RTVSPropertyOp1
 70
     1
102
RTVSPropertyOp2
 70
     1
102
RTVSPropertyOp3
 70
     1
102
RTVSPropertyOp4
 70
     1
102
RTVSPropertyOp5
 70
     1
102
RTVSPropertyOp6
 70
     1
102
RTVSPropertyOp7
 70
     1
102
RTVSPropertyOp8
 70
     1
102
RTVSPropertyOp9
 70
     1
102
RTVSPropertyOp10
 70
     1
102
RTVSPropertyOp11
 70
     1
102
RTVSPropertyOp12
 70
     1
102
RTVSPropertyOp13
 70
     1
102
RTVSPropertyOp14
 70
     1
102
RTVSPropertyOp15
 70
     1
102
RTVSPropertyOp16
 70
     1
102
RTVSPropertyOp17
 70
     1
102
RTVSPropertyOp18
 70
     1
102
RTVSPropertyOp19
 70
     1
102
RTVSPropertyOp20
 70
     1
102
RTVSPropertyOp21
 70
     1
102
RTVSPropertyOp22
 70
     1
102
RTVSPropertyOp23
 70
     1
102
RTVSPropertyOp24
 70
     1
102
RTVSPropertyOp25
 70
     1
102
RTVSPropertyOp26
 70
     1
102
RTVSPropertyOp27
 70
     1
102
RTVSPropertyOp28
 70
     1
102
RTVSPropertyOp29
 70
     1
102
RTVSPropertyOp30
 70
     1
102
RTVSPropertyOp31
 70
     1
102
RTVSPropertyOp32
 70
     1
102
RTVSPropertyOp33
 70
     1
102
RTVSPropertyOp34
 70
     1
102
RTVSPropertyOp35
 70
     1
102
RTVSPropertyOp36
 70
     1
102
RTVSPropertyOp37
 70
     1
102
RTVSPropertyOp38
 70
     1
102
RTVSPropertyOp39
 70
     1
102
RTVSPropertyOp40
 70
     1
102
RTVSPropertyOp41
 70
     1
102
RTVSPropertyOp42
 70
     1
102
RTVSPropertyOp43
 70
     1
102
RTVSPropertyOp44
 70
     1
102
RTVSPropertyOp45
 70
     1
102
RTVSPropertyOp46
 70
     1
102
RTVSPropertyOp47
 70
     1
102
RTVSPropertyOp48
 70
     1
102
RTVSPropertyOp49
 70
     1
102
RTVSPropertyOp50
 70
     1
102
RTVSPropertyOp51
 70
     0
102
RTVSPropertyOp52
 70
     0
102
RTVSPropertyOp53
 70
     1
102
RTVSPropertyOp54
 70
     1
102
RTVSPropertyOp55
 70
     1
102
RTVSPropertyOp56
 70
     1
102
RTVSPropertyOp57
 70
     1
102
RTVSPost2010Prop28
280
     0
102
RTVSPost2010PropOp28
 70
     1
102
RTVSPost2010Prop29
280
     1
102
RTVSPost2010PropOp29
 70
     1
102
RTVSPost2010Prop30
280
     1
102
RTVSPost2010PropOp30
 70
     1
102
RTVSPost2010Prop31
280
     0
102
RTVSPost2010PropOp31
 70
     1
102
RTVSPost2010Prop32
280
     0
102
RTVSPost2010PropOp32
 70
     1
102
RTVSPost2010Prop33
280
     0
102
RTVSPost2010PropOp33
 70
     1
102
RTVSPost2010Prop34
280
     0
102
RTVSPost2010PropOp34
 70
     1
102
RTVSPost2010Prop35
280
     0
102
RTVSPost2010PropOp35
 70
     1
102
RTVSPost2010Prop36
280
     0
102
RTVSPost2010PropOp36
 70
     1
102
RTVSPost2010Prop37
 90
       50
102
RTVSPost2010PropOp37
 70
     1
102
RTVSPost2010Prop38
140
0.0
102
RTVSPost2010PropOp38
 70
     1
102
RTVSPost2010Prop39
140
1.0
102
RTVSPost2010PropOp39
 70
     1
102
RTVSPost2010Prop40
 90
        0
102
RTVSPost2010PropOp40
 70
     1
102
RTVSPost2010Prop41ColorIndex
 90
       18
102
RTVSPost2010Prop41ColorRGB
 90
        0
102
RTVSPost2010PropOp41
 70
     1
102
RTVSPost2010Prop42
 90
       50
102
RTVSPost2010PropOp42
 70
     1
102
RTVSPost2010Prop43
 90
        3
102
RTVSPost2010PropOp43
 70
     1
102
RTVSPost2010Prop44ColorIndex
 90
        5
102
RTVSPost2010Prop44ColorRGB
 90
      255
102
RTVSPost2010PropOp44
 70
     1
102
RTVSPost2010Prop45
280
     0
102
RTVSPost2010PropOp45
 70
     1
102
RTVSPost2010Prop46
 90
       50
102
RTVSPost2010PropOp46
 70
     1
102
RTVSPost2010Prop47
 90
       50
102
RTVSPost2010PropOp47
 70
     1
102
RTVSPost2010Prop48
 90
       50
102
RTVSPost2010PropOp48
 70
     1
102
RTVSPost2010Prop49
280
     0
102
RTVSPost2010PropOp49
 70
     1
102
RTVSPost2010Prop50
 90
       50
102
RTVSPost2010PropOp50
 70
     1
102
RTVSPost2010Prop51ColorIndex
 90
      256
102
RTVSPost2010Prop51ColorRGB
 90
-16777216
102
RTVSPost2010PropOp51
 70
     0
102
RTVSPost2010Prop52
140
1.0
102
RTVSPost2010PropOp52
 70
     0
102
RTVSPost2010Prop53
 90
        2
102
RTVSPost2010PropOp53
 70
     1
102
RTVSPost2010Prop54
  1
strokes_ogs.tif
102
RTVSPost2010PropOp54
 70
     1
102
RTVSPost2010Prop55
280
     0
102
RTVSPost2010PropOp55
 70
     1
102
RTVSPost2010Prop56
140
1.0
102
RTVSPost2010PropOp56
 70
     1
102
RTVSPost2010Prop57
140
1.0
102
RTVSPost2010PropOp57
 70
     1
  0
XRECORD
  5
354
102
{ACAD_REACTORS
330
353
102
}
330
353
100
AcDbXrecord
280
     1
102
RTVSPropertyOp0
 70
     0
102
RTVSPropertyOp1
 70
     0
102
RTVSPropertyOp2
 70
     0
102
RTVSPropertyOp3
 70
     0
102
RTVSPropertyOp4
 70
     0
102
RTVSPropertyOp5
 70
     0
102
RTVSPropertyOp6
 70
     0
102
RTVSPropertyOp7
 70
     0
102
RTVSPropertyOp8
 70
     0
102
RTVSPropertyOp9
 70
     0
102
RTVSPropertyOp10
 70
     0
102
RTVSPropertyOp11
 70
     0
102
RTVSPropertyOp12
 70
     0
102
RTVSPropertyOp13
 70
     0
102
RTVSPropertyOp14
 70
     2
102
RTVSPropertyOp15
 70
     0
102
RTVSPropertyOp16
 70
     0
102
RTVSPropertyOp17
 70
     0
102
RTVSPropertyOp18
 70
     0
102
RTVSPropertyOp19
 70
     0
102
RTVSPropertyOp20
 70
     0
102
RTVSPropertyOp21
 70
     0
102
RTVSPropertyOp22
 70
     0
102
RTVSPropertyOp23
 70
     0
102
RTVSPropertyOp24
 70
     0
102
RTVSPropertyOp25
 70
     0
102
RTVSPropertyOp26
 70
     0
102
RTVSPropertyOp27
 70
     0
102
RTVSPropertyOp28
 70
     0
102
RTVSPropertyOp29
 70
     0
102
RTVSPropertyOp30
 70
     0
102
RTVSPropertyOp31
 70
     0
102
RTVSPropertyOp32
 70
     0
102
RTVSPropertyOp33
 70
     0
102
RTVSPropertyOp34
 70
     0
102
RTVSPropertyOp35
 70
     0
102
RTVSPropertyOp36
 70
     0
102
RTVSPropertyOp37
 70
     0
102
RTVSPropertyOp38
 70
     0
102
RTVSPropertyOp39
 70
     0
102
RTVSPropertyOp40
 70
     0
102
RTVSPropertyOp41
 70
     0
102
RTVSPropertyOp42
 70
     0
102
RTVSPropertyOp43
 70
     0
102
RTVSPropertyOp44
 70
     0
102
RTVSPropertyOp45
 70
     0
102
RTVSPropertyOp46
 70
     0
102
RTVSPropertyOp47
 70
     0
102
RTVSPropertyOp48
 70
     0
102
RTVSPropertyOp49
 70
     0
102
RTVSPropertyOp50
 70
     0
102
RTVSPropertyOp51
 70
     0
102
RTVSPropertyOp52
 70
     0
102
RTVSPropertyOp53
 70
     0
102
RTVSPropertyOp54
 70
     0
102
RTVSPropertyOp55
 70
     0
102
RTVSPropertyOp56
 70
     0
102
RTVSPropertyOp57
 70
     0
102
RTVSPost2010Prop28
280
     0
102
RTVSPost2010PropOp28
 70
     0
102
RTVSPost2010Prop29
280
     1
102
RTVSPost2010PropOp29
 70
     0
102
RTVSPost2010Prop30
280
     1
102
RTVSPost2010PropOp30
 70
     0
102
RTVSPost2010Prop31
280
     0
102
RTVSPost2010PropOp31
 70
     0
102
RTVSPost2010Prop32
280
     0
102
RTVSPost2010PropOp32
 70
     0
102
RTVSPost2010Prop33
280
     0
102
RTVSPost2010PropOp33
 70
     0
102
RTVSPost2010Prop34
280
     0
102
RTVSPost2010PropOp34
 70
     0
102
RTVSPost2010Prop35
280
     0
102
RTVSPost2010PropOp35
 70
     0
102
RTVSPost2010Prop36
280
     0
102
RTVSPost2010PropOp36
 70
     0
102
RTVSPost2010Prop37
 90
       50
102
RTVSPost2010PropOp37
 70
     0
102
RTVSPost2010Prop38
140
0.0
102
RTVSPost2010PropOp38
 70
     0
102
RTVSPost2010Prop39
140
1.0
102
RTVSPost2010PropOp39
 70
     0
102
RTVSPost2010Prop40
 90
        0
102
RTVSPost2010PropOp40
 70
     0
102
RTVSPost2010Prop41ColorIndex
 90
       18
102
RTVSPost2010Prop41ColorRGB
 90
        0
102
RTVSPost2010PropOp41
 70
     0
102
RTVSPost2010Prop42
 90
       50
102
RTVSPost2010PropOp42
 70
     0
102
RTVSPost2010Prop43
 90
        3
102
RTVSPost2010PropOp43
 70
     0
102
RTVSPost2010Prop44ColorIndex
 90
        5
102
RTVSPost2010Prop44ColorRGB
 90
      255
102
RTVSPost2010PropOp44
 70
     0
102
RTVSPost2010Prop45
280
     0
102
RTVSPost2010PropOp45
 70
     0
102
RTVSPost2010Prop46
 90
       50
102
RTVSPost2010PropOp46
 70
     0
102
RTVSPost2010Prop47
 90
       50
102
RTVSPost2010PropOp47
 70
     0
102
RTVSPost2010Prop48
 90
       50
102
RTVSPost2010PropOp48
 70
     0
102
RTVSPost2010Prop49
280
     0
102
RTVSPost2010PropOp49
 70
     0
102
RTVSPost2010Prop50
 90
       50
102
RTVSPost2010PropOp50
 70
     0
102
RTVSPost2010Prop51ColorIndex
 90
      256
102
RTVSPost2010Prop51ColorRGB
 90
-16777216
102
RTVSPost2010PropOp51
 70
     0
102
RTVSPost2010Prop52
140
1.0
102
RTVSPost2010PropOp52
 70
     0
102
RTVSPost2010Prop53
 90
        2
102
RTVSPost2010PropOp53
 70
     0
102
RTVSPost2010Prop54
  1
strokes_ogs.tif
102
RTVSPost2010PropOp54
 70
     0
102
RTVSPost2010Prop55
280
     0
102
RTVSPost2010PropOp55
 70
     0
102
RTVSPost2010Prop56
140
1.0
102
RTVSPost2010PropOp56
 70
     0
102
RTVSPost2010Prop57
140
1.0
102
RTVSPost2010PropOp57
 70
     0
  0
XRECORD
  5
342
102
{ACAD_REACTORS
330
341
102
}
330
341
100
AcDbXrecord
280
     1
102
RTVSPropertyOp0
 70
     1
102
RTVSPropertyOp1
 70
     1
102
RTVSPropertyOp2
 70
     1
102
RTVSPropertyOp3
 70
     1
102
RTVSPropertyOp4
 70
     1
102
RTVSPropertyOp5
 70
     1
102
RTVSPropertyOp6
 70
     1
102
RTVSPropertyOp7
 70
     1
102
RTVSPropertyOp8
 70
     1
102
RTVSPropertyOp9
 70
     1
102
RTVSPropertyOp10
 70
     1
102
RTVSPropertyOp11
 70
     1
102
RTVSPropertyOp12
 70
     1
102
RTVSPropertyOp13
 70
     1
102
RTVSPropertyOp14
 70
     1
102
RTVSPropertyOp15
 70
     1
102
RTVSPropertyOp16
 70
     1
102
RTVSPropertyOp17
 70
     1
102
RTVSPropertyOp18
 70
     1
102
RTVSPropertyOp19
 70
     1
102
RTVSPropertyOp20
 70
     1
102
RTVSPropertyOp21
 70
     1
102
RTVSPropertyOp22
 70
     1
102
RTVSPropertyOp23
 70
     1
102
RTVSPropertyOp24
 70
     1
102
RTVSPropertyOp25
 70
     1
102
RTVSPropertyOp26
 70
     1
102
RTVSPropertyOp27
 70
     1
102
RTVSPropertyOp28
 70
     1
102
RTVSPropertyOp29
 70
     1
102
RTVSPropertyOp30
 70
     1
102
RTVSPropertyOp31
 70
     1
102
RTVSPropertyOp32
 70
     1
102
RTVSPropertyOp33
 70
     1
102
RTVSPropertyOp34
 70
     1
102
RTVSPropertyOp35
 70
     1
102
RTVSPropertyOp36
 70
     1
102
RTVSPropertyOp37
 70
     1
102
RTVSPropertyOp38
 70
     1
102
RTVSPropertyOp39
 70
     1
102
RTVSPropertyOp40
 70
     1
102
RTVSPropertyOp41
 70
     1
102
RTVSPropertyOp42
 70
     1
102
RTVSPropertyOp43
 70
     1
102
RTVSPropertyOp44
 70
     1
102
RTVSPropertyOp45
 70
     1
102
RTVSPropertyOp46
 70
     1
102
RTVSPropertyOp47
 70
     1
102
RTVSPropertyOp48
 70
     1
102
RTVSPropertyOp49
 70
     1
102
RTVSPropertyOp50
 70
     1
102
RTVSPropertyOp51
 70
     0
102
RTVSPropertyOp52
 70
     0
102
RTVSPropertyOp53
 70
     1
102
RTVSPropertyOp54
 70
     1
102
RTVSPropertyOp55
 70
     1
102
RTVSPropertyOp56
 70
     1
102
RTVSPropertyOp57
 70
     1
102
RTVSPost2010Prop28
280
     0
102
RTVSPost2010PropOp28
 70
     1
102
RTVSPost2010Prop29
280
     1
102
RTVSPost2010PropOp29
 70
     1
102
RTVSPost2010Prop30
280
     1
102
RTVSPost2010PropOp30
 70
     1
102
RTVSPost2010Prop31
280
     0
102
RTVSPost2010PropOp31
 70
     1
102
RTVSPost2010Prop32
280
     0
102
RTVSPost2010PropOp32
 70
     1
102
RTVSPost2010Prop33
280
     0
102
RTVSPost2010PropOp33
 70
     1
102
RTVSPost2010Prop34
280
     0
102
RTVSPost2010PropOp34
 70
     1
102
RTVSPost2010Prop35
280
     0
102
RTVSPost2010PropOp35
 70
     1
102
RTVSPost2010Prop36
280
     0
102
RTVSPost2010PropOp36
 70
     1
102
RTVSPost2010Prop37
 90
       50
102
RTVSPost2010PropOp37
 70
     1
102
RTVSPost2010Prop38
140
0.0
102
RTVSPost2010PropOp38
 70
     1
102
RTVSPost2010Prop39
140
1.0
102
RTVSPost2010PropOp39
 70
     1
102
RTVSPost2010Prop40
 90
        0
102
RTVSPost2010PropOp40
 70
     1
102
RTVSPost2010Prop41ColorIndex
 90
       18
102
RTVSPost2010Prop41ColorRGB
 90
        0
102
RTVSPost2010PropOp41
 70
     1
102
RTVSPost2010Prop42
 90
       50
102
RTVSPost2010PropOp42
 70
     1
102
RTVSPost2010Prop43
 90
        3
102
RTVSPost2010PropOp43
 70
     1
102
RTVSPost2010Prop44ColorIndex
 90
        5
102
RTVSPost2010Prop44ColorRGB
 90
      255
102
RTVSPost2010PropOp44
 70
     1
102
RTVSPost2010Prop45
280
     0
102
RTVSPost2010PropOp45
 70
     1
102
RTVSPost2010Prop46
 90
       50
102
RTVSPost2010PropOp46
 70
     1
102
RTVSPost2010Prop47
 90
       50
102
RTVSPost2010PropOp47
 70
     1
102
RTVSPost2010Prop48
 90
       50
102
RTVSPost2010PropOp48
 70
     1
102
RTVSPost2010Prop49
280
     0
102
RTVSPost2010PropOp49
 70
     1
102
RTVSPost2010Prop50
 90
       50
102
RTVSPost2010PropOp50
 70
     1
102
RTVSPost2010Prop51ColorIndex
 90
      256
102
RTVSPost2010Prop51ColorRGB
 90
-16777216
102
RTVSPost2010PropOp51
 70
     0
102
RTVSPost2010Prop52
140
1.0
102
RTVSPost2010PropOp52
 70
     0
102
RTVSPost2010Prop53
 90
        2
102
RTVSPost2010PropOp53
 70
     1
102
RTVSPost2010Prop54
  1
strokes_ogs.tif
102
RTVSPost2010PropOp54
 70
     1
102
RTVSPost2010Prop55
280
     0
102
RTVSPost2010PropOp55
 70
     1
102
RTVSPost2010Prop56
140
1.0
102
RTVSPost2010PropOp56
 70
     1
102
RTVSPost2010Prop57
140
1.0
102
RTVSPost2010PropOp57
 70
     1
  0
XRECORD
  5
360
102
{ACAD_REACTORS
330
35F
102
}
330
35F
100
AcDbXrecord
280
     1
102
RTVSPropertyOp0
 70
     1
102
RTVSPropertyOp1
 70
     1
102
RTVSPropertyOp2
 70
     1
102
RTVSPropertyOp3
 70
     1
102
RTVSPropertyOp4
 70
     1
102
RTVSPropertyOp5
 70
     1
102
RTVSPropertyOp6
 70
     1
102
RTVSPropertyOp7
 70
     1
102
RTVSPropertyOp8
 70
     1
102
RTVSPropertyOp9
 70
     1
102
RTVSPropertyOp10
 70
     1
102
RTVSPropertyOp11
 70
     1
102
RTVSPropertyOp12
 70
     1
102
RTVSPropertyOp13
 70
     1
102
RTVSPropertyOp14
 70
     1
102
RTVSPropertyOp15
 70
     1
102
RTVSPropertyOp16
 70
     1
102
RTVSPropertyOp17
 70
     1
102
RTVSPropertyOp18
 70
     1
102
RTVSPropertyOp19
 70
     1
102
RTVSPropertyOp20
 70
     1
102
RTVSPropertyOp21
 70
     1
102
RTVSPropertyOp22
 70
     1
102
RTVSPropertyOp23
 70
     1
102
RTVSPropertyOp24
 70
     1
102
RTVSPropertyOp25
 70
     1
102
RTVSPropertyOp26
 70
     1
102
RTVSPropertyOp27
 70
     1
102
RTVSPropertyOp28
 70
     1
102
RTVSPropertyOp29
 70
     1
102
RTVSPropertyOp30
 70
     1
102
RTVSPropertyOp31
 70
     1
102
RTVSPropertyOp32
 70
     1
102
RTVSPropertyOp33
 70
     1
102
RTVSPropertyOp34
 70
     1
102
RTVSPropertyOp35
 70
     1
102
RTVSPropertyOp36
 70
     1
102
RTVSPropertyOp37
 70
     1
102
RTVSPropertyOp38
 70
     1
102
RTVSPropertyOp39
 70
     1
102
RTVSPropertyOp40
 70
     1
102
RTVSPropertyOp41
 70
     1
102
RTVSPropertyOp42
 70
     1
102
RTVSPropertyOp43
 70
     1
102
RTVSPropertyOp44
 70
     1
102
RTVSPropertyOp45
 70
     1
102
RTVSPropertyOp46
 70
     1
102
RTVSPropertyOp47
 70
     1
102
RTVSPropertyOp48
 70
     1
102
RTVSPropertyOp49
 70
     1
102
RTVSPropertyOp50
 70
     1
102
RTVSPropertyOp51
 70
     0
102
RTVSPropertyOp52
 70
     0
102
RTVSPropertyOp53
 70
     1
102
RTVSPropertyOp54
 70
     1
102
RTVSPropertyOp55
 70
     1
102
RTVSPropertyOp56
 70
     1
102
RTVSPropertyOp57
 70
     1
102
RTVSPost2010Prop28
280
     0
102
RTVSPost2010PropOp28
 70
     1
102
RTVSPost2010Prop29
280
     1
102
RTVSPost2010PropOp29
 70
     1
102
RTVSPost2010Prop30
280
     1
102
RTVSPost2010PropOp30
 70
     1
102
RTVSPost2010Prop31
280
     0
102
RTVSPost2010PropOp31
 70
     1
102
RTVSPost2010Prop32
280
     0
102
RTVSPost2010PropOp32
 70
     1
102
RTVSPost2010Prop33
280
     0
102
RTVSPost2010PropOp33
 70
     1
102
RTVSPost2010Prop34
280
     0
102
RTVSPost2010PropOp34
 70
     1
102
RTVSPost2010Prop35
280
     0
102
RTVSPost2010PropOp35
 70
     1
102
RTVSPost2010Prop36
280
     0
102
RTVSPost2010PropOp36
 70
     1
102
RTVSPost2010Prop37
 90
       50
102
RTVSPost2010PropOp37
 70
     1
102
RTVSPost2010Prop38
140
0.0
102
RTVSPost2010PropOp38
 70
     1
102
RTVSPost2010Prop39
140
1.0
102
RTVSPost2010PropOp39
 70
     1
102
RTVSPost2010Prop40
 90
        0
102
RTVSPost2010PropOp40
 70
     1
102
RTVSPost2010Prop41ColorIndex
 90
       18
102
RTVSPost2010Prop41ColorRGB
 90
        0
102
RTVSPost2010PropOp41
 70
     1
102
RTVSPost2010Prop42
 90
       50
102
RTVSPost2010PropOp42
 70
     1
102
RTVSPost2010Prop43
 90
        3
102
RTVSPost2010PropOp43
 70
     1
102
RTVSPost2010Prop44ColorIndex
 90
        5
102
RTVSPost2010Prop44ColorRGB
 90
      255
102
RTVSPost2010PropOp44
 70
     1
102
RTVSPost2010Prop45
280
     0
102
RTVSPost2010PropOp45
 70
     1
102
RTVSPost2010Prop46
 90
       50
102
RTVSPost2010PropOp46
 70
     1
102
RTVSPost2010Prop47
 90
       50
102
RTVSPost2010PropOp47
 70
     1
102
RTVSPost2010Prop48
 90
       50
102
RTVSPost2010PropOp48
 70
     1
102
RTVSPost2010Prop49
280
     0
102
RTVSPost2010PropOp49
 70
     1
102
RTVSPost2010Prop50
 90
       50
102
RTVSPost2010PropOp50
 70
     1
102
RTVSPost2010Prop51ColorIndex
 90
      256
102
RTVSPost2010Prop51ColorRGB
 90
-16777216
102
RTVSPost2010PropOp51
 70
     0
102
RTVSPost2010Prop52
140
1.0
102
RTVSPost2010PropOp52
 70
     0
102
RTVSPost2010Prop53
 90
        2
102
RTVSPost2010PropOp53
 70
     1
102
RTVSPost2010Prop54
  1
strokes_ogs.tif
102
RTVSPost2010PropOp54
 70
     1
102
RTVSPost2010Prop55
280
     0
102
RTVSPost2010PropOp55
 70
     1
102
RTVSPost2010Prop56
140
1.0
102
RTVSPost2010PropOp56
 70
     1
102
RTVSPost2010Prop57
140
1.0
102
RTVSPost2010PropOp57
 70
     1
  0
XRECORD
  5
35E
102
{ACAD_REACTORS
330
35D
102
}
330
35D
100
AcDbXrecord
280
     1
102
RTVSPropertyOp0
 70
     1
102
RTVSPropertyOp1
 70
     1
102
RTVSPropertyOp2
 70
     1
102
RTVSPropertyOp3
 70
     1
102
RTVSPropertyOp4
 70
     1
102
RTVSPropertyOp5
 70
     1
102
RTVSPropertyOp6
 70
     1
102
RTVSPropertyOp7
 70
     1
102
RTVSPropertyOp8
 70
     1
102
RTVSPropertyOp9
 70
     1
102
RTVSPropertyOp10
 70
     1
102
RTVSPropertyOp11
 70
     1
102
RTVSPropertyOp12
 70
     1
102
RTVSPropertyOp13
 70
     1
102
RTVSPropertyOp14
 70
     1
102
RTVSPropertyOp15
 70
     1
102
RTVSPropertyOp16
 70
     1
102
RTVSPropertyOp17
 70
     1
102
RTVSPropertyOp18
 70
     1
102
RTVSPropertyOp19
 70
     1
102
RTVSPropertyOp20
 70
     1
102
RTVSPropertyOp21
 70
     1
102
RTVSPropertyOp22
 70
     1
102
RTVSPropertyOp23
 70
     1
102
RTVSPropertyOp24
 70
     1
102
RTVSPropertyOp25
 70
     1
102
RTVSPropertyOp26
 70
     1
102
RTVSPropertyOp27
 70
     1
102
RTVSPropertyOp28
 70
     1
102
RTVSPropertyOp29
 70
     1
102
RTVSPropertyOp30
 70
     1
102
RTVSPropertyOp31
 70
     1
102
RTVSPropertyOp32
 70
     1
102
RTVSPropertyOp33
 70
     1
102
RTVSPropertyOp34
 70
     1
102
RTVSPropertyOp35
 70
     1
102
RTVSPropertyOp36
 70
     1
102
RTVSPropertyOp37
 70
     1
102
RTVSPropertyOp38
 70
     1
102
RTVSPropertyOp39
 70
     1
102
RTVSPropertyOp40
 70
     1
102
RTVSPropertyOp41
 70
     1
102
RTVSPropertyOp42
 70
     1
102
RTVSPropertyOp43
 70
     1
102
RTVSPropertyOp44
 70
     1
102
RTVSPropertyOp45
 70
     1
102
RTVSPropertyOp46
 70
     1
102
RTVSPropertyOp47
 70
     1
102
RTVSPropertyOp48
 70
     1
102
RTVSPropertyOp49
 70
     1
102
RTVSPropertyOp50
 70
     1
102
RTVSPropertyOp51
 70
     0
102
RTVSPropertyOp52
 70
     0
102
RTVSPropertyOp53
 70
     1
102
RTVSPropertyOp54
 70
     1
102
RTVSPropertyOp55
 70
     1
102
RTVSPropertyOp56
 70
     1
102
RTVSPropertyOp57
 70
     1
102
RTVSPost2010Prop28
280
     0
102
RTVSPost2010PropOp28
 70
     1
102
RTVSPost2010Prop29
280
     1
102
RTVSPost2010PropOp29
 70
     1
102
RTVSPost2010Prop30
280
     1
102
RTVSPost2010PropOp30
 70
     1
102
RTVSPost2010Prop31
280
     0
102
RTVSPost2010PropOp31
 70
     1
102
RTVSPost2010Prop32
280
     0
102
RTVSPost2010PropOp32
 70
     1
102
RTVSPost2010Prop33
280
     0
102
RTVSPost2010PropOp33
 70
     1
102
RTVSPost2010Prop34
280
     0
102
RTVSPost2010PropOp34
 70
     1
102
RTVSPost2010Prop35
280
     0
102
RTVSPost2010PropOp35
 70
     1
102
RTVSPost2010Prop36
280
     0
102
RTVSPost2010PropOp36
 70
     1
102
RTVSPost2010Prop37
 90
       50
102
RTVSPost2010PropOp37
 70
     1
102
RTVSPost2010Prop38
140
0.0
102
RTVSPost2010PropOp38
 70
     1
102
RTVSPost2010Prop39
140
1.0
102
RTVSPost2010PropOp39
 70
     1
102
RTVSPost2010Prop40
 90
        0
102
RTVSPost2010PropOp40
 70
     1
102
RTVSPost2010Prop41ColorIndex
 90
       18
102
RTVSPost2010Prop41ColorRGB
 90
        0
102
RTVSPost2010PropOp41
 70
     1
102
RTVSPost2010Prop42
 90
       50
102
RTVSPost2010PropOp42
 70
     1
102
RTVSPost2010Prop43
 90
        3
102
RTVSPost2010PropOp43
 70
     1
102
RTVSPost2010Prop44ColorIndex
 90
        5
102
RTVSPost2010Prop44ColorRGB
 90
      255
102
RTVSPost2010PropOp44
 70
     1
102
RTVSPost2010Prop45
280
     0
102
RTVSPost2010PropOp45
 70
     1
102
RTVSPost2010Prop46
 90
       50
102
RTVSPost2010PropOp46
 70
     1
102
RTVSPost2010Prop47
 90
       50
102
RTVSPost2010PropOp47
 70
     1
102
RTVSPost2010Prop48
 90
       50
102
RTVSPost2010PropOp48
 70
     1
102
RTVSPost2010Prop49
280
     0
102
RTVSPost2010PropOp49
 70
     1
102
RTVSPost2010Prop50
 90
       50
102
RTVSPost2010PropOp50
 70
     1
102
RTVSPost2010Prop51ColorIndex
 90
      256
102
RTVSPost2010Prop51ColorRGB
 90
-16777216
102
RTVSPost2010PropOp51
 70
     0
102
RTVSPost2010Prop52
140
1.0
102
RTVSPost2010PropOp52
 70
     0
102
RTVSPost2010Prop53
 90
        2
102
RTVSPost2010PropOp53
 70
     1
102
RTVSPost2010Prop54
  1
strokes_ogs.tif
102
RTVSPost2010PropOp54
 70
     1
102
RTVSPost2010Prop55
280
     0
102
RTVSPost2010PropOp55
 70
     1
102
RTVSPost2010Prop56
140
1.0
102
RTVSPost2010PropOp56
 70
     1
102
RTVSPost2010Prop57
140
1.0
102
RTVSPost2010PropOp57
 70
     1
  0
XRECORD
  5
358
102
{ACAD_REACTORS
330
357
102
}
330
357
100
AcDbXrecord
280
     1
102
RTVSPropertyOp0
 70
     1
102
RTVSPropertyOp1
 70
     1
102
RTVSPropertyOp2
 70
     1
102
RTVSPropertyOp3
 70
     1
102
RTVSPropertyOp4
 70
     1
102
RTVSPropertyOp5
 70
     1
102
RTVSPropertyOp6
 70
     1
102
RTVSPropertyOp7
 70
     1
102
RTVSPropertyOp8
 70
     1
102
RTVSPropertyOp9
 70
     1
102
RTVSPropertyOp10
 70
     1
102
RTVSPropertyOp11
 70
     1
102
RTVSPropertyOp12
 70
     1
102
RTVSPropertyOp13
 70
     1
102
RTVSPropertyOp14
 70
     1
102
RTVSPropertyOp15
 70
     1
102
RTVSPropertyOp16
 70
     1
102
RTVSPropertyOp17
 70
     1
102
RTVSPropertyOp18
 70
     1
102
RTVSPropertyOp19
 70
     1
102
RTVSPropertyOp20
 70
     1
102
RTVSPropertyOp21
 70
     1
102
RTVSPropertyOp22
 70
     1
102
RTVSPropertyOp23
 70
     1
102
RTVSPropertyOp24
 70
     1
102
RTVSPropertyOp25
 70
     1
102
RTVSPropertyOp26
 70
     1
102
RTVSPropertyOp27
 70
     1
102
RTVSPropertyOp28
 70
     1
102
RTVSPropertyOp29
 70
     1
102
RTVSPropertyOp30
 70
     1
102
RTVSPropertyOp31
 70
     1
102
RTVSPropertyOp32
 70
     1
102
RTVSPropertyOp33
 70
     1
102
RTVSPropertyOp34
 70
     1
102
RTVSPropertyOp35
 70
     1
102
RTVSPropertyOp36
 70
     1
102
RTVSPropertyOp37
 70
     1
102
RTVSPropertyOp38
 70
     1
102
RTVSPropertyOp39
 70
     1
102
RTVSPropertyOp40
 70
     1
102
RTVSPropertyOp41
 70
     1
102
RTVSPropertyOp42
 70
     1
102
RTVSPropertyOp43
 70
     1
102
RTVSPropertyOp44
 70
     1
102
RTVSPropertyOp45
 70
     1
102
RTVSPropertyOp46
 70
     1
102
RTVSPropertyOp47
 70
     1
102
RTVSPropertyOp48
 70
     1
102
RTVSPropertyOp49
 70
     1
102
RTVSPropertyOp50
 70
     1
102
RTVSPropertyOp51
 70
     0
102
RTVSPropertyOp52
 70
     0
102
RTVSPropertyOp53
 70
     1
102
RTVSPropertyOp54
 70
     1
102
RTVSPropertyOp55
 70
     1
102
RTVSPropertyOp56
 70
     1
102
RTVSPropertyOp57
 70
     1
102
RTVSPost2010Prop28
280
     0
102
RTVSPost2010PropOp28
 70
     1
102
RTVSPost2010Prop29
280
     1
102
RTVSPost2010PropOp29
 70
     1
102
RTVSPost2010Prop30
280
     1
102
RTVSPost2010PropOp30
 70
     1
102
RTVSPost2010Prop31
280
     0
102
RTVSPost2010PropOp31
 70
     1
102
RTVSPost2010Prop32
280
     0
102
RTVSPost2010PropOp32
 70
     1
102
RTVSPost2010Prop33
280
     0
102
RTVSPost2010PropOp33
 70
     1
102
RTVSPost2010Prop34
280
     0
102
RTVSPost2010PropOp34
 70
     1
102
RTVSPost2010Prop35
280
     0
102
RTVSPost2010PropOp35
 70
     1
102
RTVSPost2010Prop36
280
     0
102
RTVSPost2010PropOp36
 70
     1
102
RTVSPost2010Prop37
 90
       50
102
RTVSPost2010PropOp37
 70
     1
102
RTVSPost2010Prop38
140
0.0
102
RTVSPost2010PropOp38
 70
     1
102
RTVSPost2010Prop39
140
1.0
102
RTVSPost2010PropOp39
 70
     1
102
RTVSPost2010Prop40
 90
        0
102
RTVSPost2010PropOp40
 70
     1
102
RTVSPost2010Prop41ColorIndex
 90
       18
102
RTVSPost2010Prop41ColorRGB
 90
        0
102
RTVSPost2010PropOp41
 70
     1
102
RTVSPost2010Prop42
 90
       50
102
RTVSPost2010PropOp42
 70
     1
102
RTVSPost2010Prop43
 90
        3
102
RTVSPost2010PropOp43
 70
     1
102
RTVSPost2010Prop44ColorIndex
 90
        5
102
RTVSPost2010Prop44ColorRGB
 90
      255
102
RTVSPost2010PropOp44
 70
     1
102
RTVSPost2010Prop45
280
     0
102
RTVSPost2010PropOp45
 70
     1
102
RTVSPost2010Prop46
 90
       50
102
RTVSPost2010PropOp46
 70
     1
102
RTVSPost2010Prop47
 90
       50
102
RTVSPost2010PropOp47
 70
     1
102
RTVSPost2010Prop48
 90
       50
102
RTVSPost2010PropOp48
 70
     1
102
RTVSPost2010Prop49
280
     0
102
RTVSPost2010PropOp49
 70
     1
102
RTVSPost2010Prop50
 90
       50
102
RTVSPost2010PropOp50
 70
     1
102
RTVSPost2010Prop51ColorIndex
 90
      256
102
RTVSPost2010Prop51ColorRGB
 90
-16777216
102
RTVSPost2010PropOp51
 70
     0
102
RTVSPost2010Prop52
140
1.0
102
RTVSPost2010PropOp52
 70
     0
102
RTVSPost2010Prop53
 90
        2
102
RTVSPost2010PropOp53
 70
     1
102
RTVSPost2010Prop54
  1
strokes_ogs.tif
102
RTVSPost2010PropOp54
 70
     1
102
RTVSPost2010Prop55
280
     0
102
RTVSPost2010PropOp55
 70
     1
102
RTVSPost2010Prop56
140
1.0
102
RTVSPost2010PropOp56
 70
     1
102
RTVSPost2010Prop57
140
1.0
102
RTVSPost2010PropOp57
 70
     1
  0
XRECORD
  5
35A
102
{ACAD_REACTORS
330
359
102
}
330
359
100
AcDbXrecord
280
     1
102
RTVSPropertyOp0
 70
     1
102
RTVSPropertyOp1
 70
     1
102
RTVSPropertyOp2
 70
     1
102
RTVSPropertyOp3
 70
     1
102
RTVSPropertyOp4
 70
     1
102
RTVSPropertyOp5
 70
     1
102
RTVSPropertyOp6
 70
     1
102
RTVSPropertyOp7
 70
     1
102
RTVSPropertyOp8
 70
     1
102
RTVSPropertyOp9
 70
     1
102
RTVSPropertyOp10
 70
     1
102
RTVSPropertyOp11
 70
     1
102
RTVSPropertyOp12
 70
     1
102
RTVSPropertyOp13
 70
     1
102
RTVSPropertyOp14
 70
     1
102
RTVSPropertyOp15
 70
     1
102
RTVSPropertyOp16
 70
     1
102
RTVSPropertyOp17
 70
     1
102
RTVSPropertyOp18
 70
     1
102
RTVSPropertyOp19
 70
     1
102
RTVSPropertyOp20
 70
     1
102
RTVSPropertyOp21
 70
     1
102
RTVSPropertyOp22
 70
     1
102
RTVSPropertyOp23
 70
     1
102
RTVSPropertyOp24
 70
     1
102
RTVSPropertyOp25
 70
     1
102
RTVSPropertyOp26
 70
     1
102
RTVSPropertyOp27
 70
     1
102
RTVSPropertyOp28
 70
     1
102
RTVSPropertyOp29
 70
     1
102
RTVSPropertyOp30
 70
     1
102
RTVSPropertyOp31
 70
     1
102
RTVSPropertyOp32
 70
     1
102
RTVSPropertyOp33
 70
     1
102
RTVSPropertyOp34
 70
     1
102
RTVSPropertyOp35
 70
     1
102
RTVSPropertyOp36
 70
     1
102
RTVSPropertyOp37
 70
     1
102
RTVSPropertyOp38
 70
     1
102
RTVSPropertyOp39
 70
     1
102
RTVSPropertyOp40
 70
     1
102
RTVSPropertyOp41
 70
     1
102
RTVSPropertyOp42
 70
     1
102
RTVSPropertyOp43
 70
     1
102
RTVSPropertyOp44
 70
     1
102
RTVSPropertyOp45
 70
     1
102
RTVSPropertyOp46
 70
     1
102
RTVSPropertyOp47
 70
     1
102
RTVSPropertyOp48
 70
     1
102
RTVSPropertyOp49
 70
     1
102
RTVSPropertyOp50
 70
     1
102
RTVSPropertyOp51
 70
     0
102
RTVSPropertyOp52
 70
     0
102
RTVSPropertyOp53
 70
     1
102
RTVSPropertyOp54
 70
     1
102
RTVSPropertyOp55
 70
     1
102
RTVSPropertyOp56
 70
     1
102
RTVSPropertyOp57
 70
     1
102
RTVSPost2010Prop28
280
     0
102
RTVSPost2010PropOp28
 70
     1
102
RTVSPost2010Prop29
280
     1
102
RTVSPost2010PropOp29
 70
     1
102
RTVSPost2010Prop30
280
     1
102
RTVSPost2010PropOp30
 70
     1
102
RTVSPost2010Prop31
280
     0
102
RTVSPost2010PropOp31
 70
     1
102
RTVSPost2010Prop32
280
     0
102
RTVSPost2010PropOp32
 70
     1
102
RTVSPost2010Prop33
280
     0
102
RTVSPost2010PropOp33
 70
     1
102
RTVSPost2010Prop34
280
     0
102
RTVSPost2010PropOp34
 70
     1
102
RTVSPost2010Prop35
280
     0
102
RTVSPost2010PropOp35
 70
     1
102
RTVSPost2010Prop36
280
     0
102
RTVSPost2010PropOp36
 70
     1
102
RTVSPost2010Prop37
 90
       50
102
RTVSPost2010PropOp37
 70
     1
102
RTVSPost2010Prop38
140
0.0
102
RTVSPost2010PropOp38
 70
     1
102
RTVSPost2010Prop39
140
1.0
102
RTVSPost2010PropOp39
 70
     1
102
RTVSPost2010Prop40
 90
        0
102
RTVSPost2010PropOp40
 70
     1
102
RTVSPost2010Prop41ColorIndex
 90
       18
102
RTVSPost2010Prop41ColorRGB
 90
        0
102
RTVSPost2010PropOp41
 70
     1
102
RTVSPost2010Prop42
 90
       50
102
RTVSPost2010PropOp42
 70
     1
102
RTVSPost2010Prop43
 90
        3
102
RTVSPost2010PropOp43
 70
     1
102
RTVSPost2010Prop44ColorIndex
 90
        5
102
RTVSPost2010Prop44ColorRGB
 90
      255
102
RTVSPost2010PropOp44
 70
     1
102
RTVSPost2010Prop45
280
     0
102
RTVSPost2010PropOp45
 70
     1
102
RTVSPost2010Prop46
 90
       50
102
RTVSPost2010PropOp46
 70
     1
102
RTVSPost2010Prop47
 90
       50
102
RTVSPost2010PropOp47
 70
     1
102
RTVSPost2010Prop48
 90
       50
102
RTVSPost2010PropOp48
 70
     1
102
RTVSPost2010Prop49
280
     0
102
RTVSPost2010PropOp49
 70
     1
102
RTVSPost2010Prop50
 90
       50
102
RTVSPost2010PropOp50
 70
     1
102
RTVSPost2010Prop51ColorIndex
 90
      256
102
RTVSPost2010Prop51ColorRGB
 90
-16777216
102
RTVSPost2010PropOp51
 70
     0
102
RTVSPost2010Prop52
140
1.0
102
RTVSPost2010PropOp52
 70
     0
102
RTVSPost2010Prop53
 90
        2
102
RTVSPost2010PropOp53
 70
     1
102
RTVSPost2010Prop54
  1
strokes_ogs.tif
102
RTVSPost2010PropOp54
 70
     1
102
RTVSPost2010Prop55
280
     0
102
RTVSPost2010PropOp55
 70
     1
102
RTVSPost2010Prop56
140
1.0
102
RTVSPost2010PropOp56
 70
     1
102
RTVSPost2010Prop57
140
1.0
102
RTVSPost2010PropOp57
 70
     1
  0
XRECORD
  5
34A
102
{ACAD_REACTORS
330
349
102
}
330
349
100
AcDbXrecord
280
     1
102
RTVSPropertyOp0
 70
     1
102
RTVSPropertyOp1
 70
     1
102
RTVSPropertyOp2
 70
     1
102
RTVSPropertyOp3
 70
     1
102
RTVSPropertyOp4
 70
     1
102
RTVSPropertyOp5
 70
     1
102
RTVSPropertyOp6
 70
     1
102
RTVSPropertyOp7
 70
     1
102
RTVSPropertyOp8
 70
     1
102
RTVSPropertyOp9
 70
     1
102
RTVSPropertyOp10
 70
     1
102
RTVSPropertyOp11
 70
     1
102
RTVSPropertyOp12
 70
     1
102
RTVSPropertyOp13
 70
     1
102
RTVSPropertyOp14
 70
     1
102
RTVSPropertyOp15
 70
     1
102
RTVSPropertyOp16
 70
     1
102
RTVSPropertyOp17
 70
     1
102
RTVSPropertyOp18
 70
     1
102
RTVSPropertyOp19
 70
     1
102
RTVSPropertyOp20
 70
     1
102
RTVSPropertyOp21
 70
     1
102
RTVSPropertyOp22
 70
     1
102
RTVSPropertyOp23
 70
     1
102
RTVSPropertyOp24
 70
     1
102
RTVSPropertyOp25
 70
     1
102
RTVSPropertyOp26
 70
     1
102
RTVSPropertyOp27
 70
     1
102
RTVSPropertyOp28
 70
     1
102
RTVSPropertyOp29
 70
     1
102
RTVSPropertyOp30
 70
     1
102
RTVSPropertyOp31
 70
     1
102
RTVSPropertyOp32
 70
     1
102
RTVSPropertyOp33
 70
     1
102
RTVSPropertyOp34
 70
     1
102
RTVSPropertyOp35
 70
     1
102
RTVSPropertyOp36
 70
     1
102
RTVSPropertyOp37
 70
     1
102
RTVSPropertyOp38
 70
     1
102
RTVSPropertyOp39
 70
     1
102
RTVSPropertyOp40
 70
     1
102
RTVSPropertyOp41
 70
     1
102
RTVSPropertyOp42
 70
     1
102
RTVSPropertyOp43
 70
     1
102
RTVSPropertyOp44
 70
     1
102
RTVSPropertyOp45
 70
     1
102
RTVSPropertyOp46
 70
     1
102
RTVSPropertyOp47
 70
     1
102
RTVSPropertyOp48
 70
     1
102
RTVSPropertyOp49
 70
     1
102
RTVSPropertyOp50
 70
     1
102
RTVSPropertyOp51
 70
     0
102
RTVSPropertyOp52
 70
     0
102
RTVSPropertyOp53
 70
     1
102
RTVSPropertyOp54
 70
     1
102
RTVSPropertyOp55
 70
     1
102
RTVSPropertyOp56
 70
     1
102
RTVSPropertyOp57
 70
     1
102
RTVSPost2010Prop28
280
     0
102
RTVSPost2010PropOp28
 70
     1
102
RTVSPost2010Prop29
280
     1
102
RTVSPost2010PropOp29
 70
     1
102
RTVSPost2010Prop30
280
     1
102
RTVSPost2010PropOp30
 70
     1
102
RTVSPost2010Prop31
280
     0
102
RTVSPost2010PropOp31
 70
     1
102
RTVSPost2010Prop32
280
     0
102
RTVSPost2010PropOp32
 70
     1
102
RTVSPost2010Prop33
280
     0
102
RTVSPost2010PropOp33
 70
     1
102
RTVSPost2010Prop34
280
     0
102
RTVSPost2010PropOp34
 70
     1
102
RTVSPost2010Prop35
280
     0
102
RTVSPost2010PropOp35
 70
     1
102
RTVSPost2010Prop36
280
     0
102
RTVSPost2010PropOp36
 70
     1
102
RTVSPost2010Prop37
 90
       50
102
RTVSPost2010PropOp37
 70
     1
102
RTVSPost2010Prop38
140
0.0
102
RTVSPost2010PropOp38
 70
     1
102
RTVSPost2010Prop39
140
1.0
102
RTVSPost2010PropOp39
 70
     1
102
RTVSPost2010Prop40
 90
        0
102
RTVSPost2010PropOp40
 70
     1
102
RTVSPost2010Prop41ColorIndex
 90
       18
102
RTVSPost2010Prop41ColorRGB
 90
        0
102
RTVSPost2010PropOp41
 70
     1
102
RTVSPost2010Prop42
 90
       50
102
RTVSPost2010PropOp42
 70
     1
102
RTVSPost2010Prop43
 90
        3
102
RTVSPost2010PropOp43
 70
     1
102
RTVSPost2010Prop44ColorIndex
 90
        5
102
RTVSPost2010Prop44ColorRGB
 90
      255
102
RTVSPost2010PropOp44
 70
     1
102
RTVSPost2010Prop45
280
     0
102
RTVSPost2010PropOp45
 70
     1
102
RTVSPost2010Prop46
 90
       50
102
RTVSPost2010PropOp46
 70
     1
102
RTVSPost2010Prop47
 90
       50
102
RTVSPost2010PropOp47
 70
     1
102
RTVSPost2010Prop48
 90
       50
102
RTVSPost2010PropOp48
 70
     1
102
RTVSPost2010Prop49
280
     0
102
RTVSPost2010PropOp49
 70
     1
102
RTVSPost2010Prop50
 90
       50
102
RTVSPost2010PropOp50
 70
     1
102
RTVSPost2010Prop51ColorIndex
 90
      256
102
RTVSPost2010Prop51ColorRGB
 90
-16777216
102
RTVSPost2010PropOp51
 70
     0
102
RTVSPost2010Prop52
140
1.0
102
RTVSPost2010PropOp52
 70
     0
102
RTVSPost2010Prop53
 90
        2
102
RTVSPost2010PropOp53
 70
     1
102
RTVSPost2010Prop54
  1
strokes_ogs.tif
102
RTVSPost2010PropOp54
 70
     1
102
RTVSPost2010Prop55
280
     0
102
RTVSPost2010PropOp55
 70
     1
102
RTVSPost2010Prop56
140
1.0
102
RTVSPost2010PropOp56
 70
     1
102
RTVSPost2010Prop57
140
1.0
102
RTVSPost2010PropOp57
 70
     1
  0
XRECORD
  5
33C
102
{ACAD_REACTORS
330
33B
102
}
330
33B
100
AcDbXrecord
280
     1
102
RTVSPropertyOp0
 70
     1
102
RTVSPropertyOp1
 70
     1
102
RTVSPropertyOp2
 70
     1
102
RTVSPropertyOp3
 70
     1
102
RTVSPropertyOp4
 70
     1
102
RTVSPropertyOp5
 70
     1
102
RTVSPropertyOp6
 70
     1
102
RTVSPropertyOp7
 70
     1
102
RTVSPropertyOp8
 70
     1
102
RTVSPropertyOp9
 70
     1
102
RTVSPropertyOp10
 70
     1
102
RTVSPropertyOp11
 70
     1
102
RTVSPropertyOp12
 70
     1
102
RTVSPropertyOp13
 70
     1
102
RTVSPropertyOp14
 70
     1
102
RTVSPropertyOp15
 70
     1
102
RTVSPropertyOp16
 70
     1
102
RTVSPropertyOp17
 70
     1
102
RTVSPropertyOp18
 70
     1
102
RTVSPropertyOp19
 70
     1
102
RTVSPropertyOp20
 70
     1
102
RTVSPropertyOp21
 70
     1
102
RTVSPropertyOp22
 70
     1
102
RTVSPropertyOp23
 70
     1
102
RTVSPropertyOp24
 70
     1
102
RTVSPropertyOp25
 70
     1
102
RTVSPropertyOp26
 70
     1
102
RTVSPropertyOp27
 70
     1
102
RTVSPropertyOp28
 70
     1
102
RTVSPropertyOp29
 70
     1
102
RTVSPropertyOp30
 70
     1
102
RTVSPropertyOp31
 70
     1
102
RTVSPropertyOp32
 70
     1
102
RTVSPropertyOp33
 70
     1
102
RTVSPropertyOp34
 70
     1
102
RTVSPropertyOp35
 70
     1
102
RTVSPropertyOp36
 70
     1
102
RTVSPropertyOp37
 70
     1
102
RTVSPropertyOp38
 70
     1
102
RTVSPropertyOp39
 70
     1
102
RTVSPropertyOp40
 70
     1
102
RTVSPropertyOp41
 70
     1
102
RTVSPropertyOp42
 70
     1
102
RTVSPropertyOp43
 70
     1
102
RTVSPropertyOp44
 70
     1
102
RTVSPropertyOp45
 70
     1
102
RTVSPropertyOp46
 70
     1
102
RTVSPropertyOp47
 70
     1
102
RTVSPropertyOp48
 70
     1
102
RTVSPropertyOp49
 70
     1
102
RTVSPropertyOp50
 70
     1
102
RTVSPropertyOp51
 70
     0
102
RTVSPropertyOp52
 70
     0
102
RTVSPropertyOp53
 70
     1
102
RTVSPropertyOp54
 70
     1
102
RTVSPropertyOp55
 70
     1
102
RTVSPropertyOp56
 70
     1
102
RTVSPropertyOp57
 70
     1
102
RTVSPost2010Prop28
280
     0
102
RTVSPost2010PropOp28
 70
     1
102
RTVSPost2010Prop29
280
     1
102
RTVSPost2010PropOp29
 70
     1
102
RTVSPost2010Prop30
280
     1
102
RTVSPost2010PropOp30
 70
     1
102
RTVSPost2010Prop31
280
     0
102
RTVSPost2010PropOp31
 70
     1
102
RTVSPost2010Prop32
280
     0
102
RTVSPost2010PropOp32
 70
     1
102
RTVSPost2010Prop33
280
     0
102
RTVSPost2010PropOp33
 70
     1
102
RTVSPost2010Prop34
280
     0
102
RTVSPost2010PropOp34
 70
     1
102
RTVSPost2010Prop35
280
     0
102
RTVSPost2010PropOp35
 70
     1
102
RTVSPost2010Prop36
280
     0
102
RTVSPost2010PropOp36
 70
     1
102
RTVSPost2010Prop37
 90
       50
102
RTVSPost2010PropOp37
 70
     1
102
RTVSPost2010Prop38
140
0.0
102
RTVSPost2010PropOp38
 70
     1
102
RTVSPost2010Prop39
140
1.0
102
RTVSPost2010PropOp39
 70
     1
102
RTVSPost2010Prop40
 90
        0
102
RTVSPost2010PropOp40
 70
     1
102
RTVSPost2010Prop41ColorIndex
 90
       18
102
RTVSPost2010Prop41ColorRGB
 90
        0
102
RTVSPost2010PropOp41
 70
     1
102
RTVSPost2010Prop42
 90
       50
102
RTVSPost2010PropOp42
 70
     1
102
RTVSPost2010Prop43
 90
        3
102
RTVSPost2010PropOp43
 70
     1
102
RTVSPost2010Prop44ColorIndex
 90
        5
102
RTVSPost2010Prop44ColorRGB
 90
      255
102
RTVSPost2010PropOp44
 70
     1
102
RTVSPost2010Prop45
280
     0
102
RTVSPost2010PropOp45
 70
     1
102
RTVSPost2010Prop46
 90
       50
102
RTVSPost2010PropOp46
 70
     1
102
RTVSPost2010Prop47
 90
       50
102
RTVSPost2010PropOp47
 70
     1
102
RTVSPost2010Prop48
 90
       50
102
RTVSPost2010PropOp48
 70
     1
102
RTVSPost2010Prop49
280
     0
102
RTVSPost2010PropOp49
 70
     1
102
RTVSPost2010Prop50
 90
       50
102
RTVSPost2010PropOp50
 70
     1
102
RTVSPost2010Prop51ColorIndex
 90
      256
102
RTVSPost2010Prop51ColorRGB
 90
-16777216
102
RTVSPost2010PropOp51
 70
     0
102
RTVSPost2010Prop52
140
1.0
102
RTVSPost2010PropOp52
 70
     0
102
RTVSPost2010Prop53
 90
        2
102
RTVSPost2010PropOp53
 70
     1
102
RTVSPost2010Prop54
  1
strokes_ogs.tif
102
RTVSPost2010PropOp54
 70
     1
102
RTVSPost2010Prop55
280
     0
102
RTVSPost2010PropOp55
 70
     1
102
RTVSPost2010Prop56
140
1.0
102
RTVSPost2010PropOp56
 70
     1
102
RTVSPost2010Prop57
140
1.0
102
RTVSPost2010PropOp57
 70
     1
  0
XRECORD
  5
35C
102
{ACAD_REACTORS
330
35B
102
}
330
35B
100
AcDbXrecord
280
     1
102
RTVSPropertyOp0
 70
     1
102
RTVSPropertyOp1
 70
     1
102
RTVSPropertyOp2
 70
     1
102
RTVSPropertyOp3
 70
     1
102
RTVSPropertyOp4
 70
     1
102
RTVSPropertyOp5
 70
     1
102
RTVSPropertyOp6
 70
     1
102
RTVSPropertyOp7
 70
     1
102
RTVSPropertyOp8
 70
     1
102
RTVSPropertyOp9
 70
     1
102
RTVSPropertyOp10
 70
     1
102
RTVSPropertyOp11
 70
     1
102
RTVSPropertyOp12
 70
     1
102
RTVSPropertyOp13
 70
     1
102
RTVSPropertyOp14
 70
     1
102
RTVSPropertyOp15
 70
     1
102
RTVSPropertyOp16
 70
     1
102
RTVSPropertyOp17
 70
     1
102
RTVSPropertyOp18
 70
     1
102
RTVSPropertyOp19
 70
     1
102
RTVSPropertyOp20
 70
     1
102
RTVSPropertyOp21
 70
     1
102
RTVSPropertyOp22
 70
     1
102
RTVSPropertyOp23
 70
     1
102
RTVSPropertyOp24
 70
     1
102
RTVSPropertyOp25
 70
     1
102
RTVSPropertyOp26
 70
     1
102
RTVSPropertyOp27
 70
     1
102
RTVSPropertyOp28
 70
     1
102
RTVSPropertyOp29
 70
     1
102
RTVSPropertyOp30
 70
     1
102
RTVSPropertyOp31
 70
     1
102
RTVSPropertyOp32
 70
     1
102
RTVSPropertyOp33
 70
     1
102
RTVSPropertyOp34
 70
     1
102
RTVSPropertyOp35
 70
     1
102
RTVSPropertyOp36
 70
     1
102
RTVSPropertyOp37
 70
     1
102
RTVSPropertyOp38
 70
     1
102
RTVSPropertyOp39
 70
     1
102
RTVSPropertyOp40
 70
     1
102
RTVSPropertyOp41
 70
     1
102
RTVSPropertyOp42
 70
     1
102
RTVSPropertyOp43
 70
     1
102
RTVSPropertyOp44
 70
     1
102
RTVSPropertyOp45
 70
     1
102
RTVSPropertyOp46
 70
     1
102
RTVSPropertyOp47
 70
     1
102
RTVSPropertyOp48
 70
     1
102
RTVSPropertyOp49
 70
     1
102
RTVSPropertyOp50
 70
     1
102
RTVSPropertyOp51
 70
     0
102
RTVSPropertyOp52
 70
     0
102
RTVSPropertyOp53
 70
     1
102
RTVSPropertyOp54
 70
     1
102
RTVSPropertyOp55
 70
     1
102
RTVSPropertyOp56
 70
     1
102
RTVSPropertyOp57
 70
     1
102
RTVSPost2010Prop28
280
     0
102
RTVSPost2010PropOp28
 70
     1
102
RTVSPost2010Prop29
280
     1
102
RTVSPost2010PropOp29
 70
     1
102
RTVSPost2010Prop30
280
     1
102
RTVSPost2010PropOp30
 70
     1
102
RTVSPost2010Prop31
280
     0
102
RTVSPost2010PropOp31
 70
     1
102
RTVSPost2010Prop32
280
     0
102
RTVSPost2010PropOp32
 70
     1
102
RTVSPost2010Prop33
280
     0
102
RTVSPost2010PropOp33
 70
     1
102
RTVSPost2010Prop34
280
     0
102
RTVSPost2010PropOp34
 70
     1
102
RTVSPost2010Prop35
280
     0
102
RTVSPost2010PropOp35
 70
     1
102
RTVSPost2010Prop36
280
     0
102
RTVSPost2010PropOp36
 70
     1
102
RTVSPost2010Prop37
 90
       50
102
RTVSPost2010PropOp37
 70
     1
102
RTVSPost2010Prop38
140
0.0
102
RTVSPost2010PropOp38
 70
     1
102
RTVSPost2010Prop39
140
1.0
102
RTVSPost2010PropOp39
 70
     1
102
RTVSPost2010Prop40
 90
        0
102
RTVSPost2010PropOp40
 70
     1
102
RTVSPost2010Prop41ColorIndex
 90
       18
102
RTVSPost2010Prop41ColorRGB
 90
        0
102
RTVSPost2010PropOp41
 70
     1
102
RTVSPost2010Prop42
 90
       50
102
RTVSPost2010PropOp42
 70
     1
102
RTVSPost2010Prop43
 90
        3
102
RTVSPost2010PropOp43
 70
     1
102
RTVSPost2010Prop44ColorIndex
 90
        5
102
RTVSPost2010Prop44ColorRGB
 90
      255
102
RTVSPost2010PropOp44
 70
     1
102
RTVSPost2010Prop45
280
     0
102
RTVSPost2010PropOp45
 70
     1
102
RTVSPost2010Prop46
 90
       50
102
RTVSPost2010PropOp46
 70
     1
102
RTVSPost2010Prop47
 90
       50
102
RTVSPost2010PropOp47
 70
     1
102
RTVSPost2010Prop48
 90
       50
102
RTVSPost2010PropOp48
 70
     1
102
RTVSPost2010Prop49
280
     0
102
RTVSPost2010PropOp49
 70
     1
102
RTVSPost2010Prop50
 90
       50
102
RTVSPost2010PropOp50
 70
     1
102
RTVSPost2010Prop51ColorIndex
 90
      256
102
RTVSPost2010Prop51ColorRGB
 90
-16777216
102
RTVSPost2010PropOp51
 70
     0
102
RTVSPost2010Prop52
140
1.0
102
RTVSPost2010PropOp52
 70
     0
102
RTVSPost2010Prop53
 90
        2
102
RTVSPost2010PropOp53
 70
     1
102
RTVSPost2010Prop54
  1
strokes_ogs.tif
102
RTVSPost2010PropOp54
 70
     1
102
RTVSPost2010Prop55
280
     0
102
RTVSPost2010PropOp55
 70
     1
102
RTVSPost2010Prop56
140
1.0
102
RTVSPost2010PropOp56
 70
     1
102
RTVSPost2010Prop57
140
1.0
102
RTVSPost2010PropOp57
 70
     1
  0
ENDSEC
  0
EOF
