  0
SECTION
  2
HEADER
  9
$ACADVER
  1
AC1015
  9
$ACADMAINTVER
 70
     6
  9
$DWGCODEPAGE
  3
ANSI_932
  9
$INSBASE
 10
0.0
 20
0.0
 30
0.0
  9
$EXTMIN
 10
37.54189386944613
 20
71.76085919089053
 30
0.0
  9
$EXTMAX
 10
391.2898965750629
 20
342.0
 30
0.0
  9
$LIMMIN
 10
37.54189386944613
 20
71.76085919089053
  9
$LIMMAX
 10
391.2898965750629
 20
342.0
  9
$ORTHOMODE
 70
     0
  9
$REGENMODE
 70
     1
  9
$FILLMODE
 70
     1
  9
$QTEXTMODE
 70
     0
  9
$MIRRTEXT
 70
     1
  9
$LTSCALE
 40
1.0
  9
$ATTMODE
 70
     1
  9
$TEXTSIZE
 40
0.2
  9
$TRACEWID
 40
0.05
  9
$TEXTSTYLE
  7
Standard
  9
$CLAYER
  8
0
  9
$CELTYPE
  6
ByLayer
  9
$CECOLOR
 62
   256
  9
$CELTSCALE
 40
1.0
  9
$DISPSILH
 70
     0
  9
$DIMSCALE
 40
1.0
  9
$DIMASZ
 40
0.18
  9
$DIMEXO
 40
0.0625
  9
$DIMDLI
 40
0.38
  9
$DIMRND
 40
0.0
  9
$DIMDLE
 40
0.0
  9
$DIMEXE
 40
0.18
  9
$DIMTP
 40
0.0
  9
$DIMTM
 40
0.0
  9
$DIMTXT
 40
0.18
  9
$DIMCEN
 40
0.09
  9
$DIMTSZ
 40
0.0
  9
$DIMTOL
 70
     0
  9
$DIMLIM
 70
     0
  9
$DIMTIH
 70
     1
  9
$DIMTOH
 70
     1
  9
$DIMSE1
 70
     0
  9
$DIMSE2
 70
     0
  9
$DIMTAD
 70
     0
  9
$DIMZIN
 70
     0
  9
$DIMBLK
  1

  9
$DIMASO
 70
     1
  9
$DIMSHO
 70
     1
  9
$DIMPOST
  1

  9
$DIMAPOST
  1

  9
$DIMALT
 70
     0
  9
$DIMALTD
 70
     2
  9
$DIMALTF
 40
25.4
  9
$DIMLFAC
 40
1.0
  9
$DIMTOFL
 70
     0
  9
$DIMTVP
 40
0.0
  9
$DIMTIX
 70
     0
  9
$DIMSOXD
 70
     0
  9
$DIMSAH
 70
     0
  9
$DIMBLK1
  1

  9
$DIMBLK2
  1

  9
$DIMSTYLE
  2
Standard
  9
$DIMCLRD
 70
     0
  9
$DIMCLRE
 70
     0
  9
$DIMCLRT
 70
     0
  9
$DIMTFAC
 40
1.0
  9
$DIMGAP
 40
0.09
  9
$DIMJUST
 70
     0
  9
$DIMSD1
 70
     0
  9
$DIMSD2
 70
     0
  9
$DIMTOLJ
 70
     1
  9
$DIMTZIN
 70
     0
  9
$DIMALTZ
 70
     0
  9
$DIMALTTZ
 70
     0
  9
$DIMUPT
 70
     0
  9
$DIMDEC
 70
     4
  9
$DIMTDEC
 70
     4
  9
$DIMALTU
 70
     2
  9
$DIMALTTD
 70
     2
  9
$DIMTXSTY
  7
Standard
  9
$DIMAUNIT
 70
     0
  9
$DIMADEC
 70
     0
  9
$DIMALTRND
 40
0.0
  9
$DIMAZIN
 70
     0
  9
$DIMDSEP
 70
    46
  9
$DIMATFIT
 70
     3
  9
$DIMFRAC
 70
     0
  9
$DIMLDRBLK
  1

  9
$DIMLUNIT
 70
     2
  9
$DIMLWD
 70
    -2
  9
$DIMLWE
 70
    -2
  9
$DIMTMOVE
 70
     0
  9
$LUNITS
 70
     2
  9
$LUPREC
 70
     4
  9
$SKETCHINC
 40
0.1
  9
$FILLETRAD
 40
0.5
  9
$AUNITS
 70
     0
  9
$AUPREC
 70
     0
  9
$MENU
  1
.
  9
$ELEVATION
 40
0.0
  9
$PELEVATION
 40
0.0
  9
$THICKNESS
 40
0.0
  9
$LIMCHECK
 70
     0
  9
$CHAMFERA
 40
0.0
  9
$CHAMFERB
 40
0.0
  9
$CHAMFERC
 40
0.0
  9
$CHAMFERD
 40
0.0
  9
$SKPOLY
 70
     0
  9
$TDCREATE
 40
2459135.551736505
  9
$TDUCREATE
 40
2459135.176736505
  9
$TDUPDATE
 40
2459135.55173978
  9
$TDUUPDATE
 40
2459135.17673978
  9
$TDINDWG
 40
0.0000000116
  9
$TDUSRTIMER
 40
0.0000000116
  9
$USRTIMER
 70
     1
  9
$ANGBASE
 50
0.0
  9
$ANGDIR
 70
     0
  9
$PDMODE
 70
     0
  9
$PDSIZE
 40
0.0
  9
$PLINEWID
 40
0.0
  9
$SPLFRAME
 70
     0
  9
$SPLINETYPE
 70
     6
  9
$SPLINESEGS
 70
     8
  9
$HANDSEED
  5
3B7
  9
$SURFTAB1
 70
     6
  9
$SURFTAB2
 70
     6
  9
$SURFTYPE
 70
     6
  9
$SURFU
 70
     6
  9
$SURFV
 70
     6
  9
$UCSBASE
  2

  9
$UCSNAME
  2

  9
$UCSORG
 10
0.0
 20
0.0
 30
0.0
  9
$UCSXDIR
 10
1.0
 20
0.0
 30
0.0
  9
$UCSYDIR
 10
0.0
 20
1.0
 30
0.0
  9
$UCSORTHOREF
  2

  9
$UCSORTHOVIEW
 70
     0
  9
$UCSORGTOP
 10
0.0
 20
0.0
 30
0.0
  9
$UCSORGBOTTOM
 10
0.0
 20
0.0
 30
0.0
  9
$UCSORGLEFT
 10
0.0
 20
0.0
 30
0.0
  9
$UCSORGRIGHT
 10
0.0
 20
0.0
 30
0.0
  9
$UCSORGFRONT
 10
0.0
 20
0.0
 30
0.0
  9
$UCSORGBACK
 10
0.0
 20
0.0
 30
0.0
  9
$PUCSBASE
  2

  9
$PUCSNAME
  2

  9
$PUCSORG
 10
0.0
 20
0.0
 30
0.0
  9
$PUCSXDIR
 10
1.0
 20
0.0
 30
0.0
  9
$PUCSYDIR
 10
0.0
 20
1.0
 30
0.0
  9
$PUCSORTHOREF
  2

  9
$PUCSORTHOVIEW
 70
     0
  9
$PUCSORGTOP
 10
0.0
 20
0.0
 30
0.0
  9
$PUCSORGBOTTOM
 10
0.0
 20
0.0
 30
0.0
  9
$PUCSORGLEFT
 10
0.0
 20
0.0
 30
0.0
  9
$PUCSORGRIGHT
 10
0.0
 20
0.0
 30
0.0
  9
$PUCSORGFRONT
 10
0.0
 20
0.0
 30
0.0
  9
$PUCSORGBACK
 10
0.0
 20
0.0
 30
0.0
  9
$USERI1
 70
     0
  9
$USERI2
 70
     0
  9
$USERI3
 70
     0
  9
$USERI4
 70
     0
  9
$USERI5
 70
     0
  9
$USERR1
 40
0.0
  9
$USERR2
 40
0.0
  9
$USERR3
 40
0.0
  9
$USERR4
 40
0.0
  9
$USERR5
 40
0.0
  9
$WORLDVIEW
 70
     1
  9
$SHADEDGE
 70
     3
  9
$SHADEDIF
 70
    70
  9
$TILEMODE
 70
     1
  9
$MAXACTVP
 70
    64
  9
$PINSBASE
 10
0.0
 20
0.0
 30
0.0
  9
$PLIMCHECK
 70
     0
  9
$PEXTMIN
 10
-9.375
 20
-25.0
 30
0.0
  9
$PEXTMAX
 10
525.0
 20
371.25
 30
0.0
  9
$PLIMMIN
 10
-7.5
 20
-20.0
  9
$PLIMMAX
 10
420.0
 20
297.0
  9
$UNITMODE
 70
     0
  9
$VISRETAIN
 70
     1
  9
$PLINEGEN
 70
     0
  9
$PSLTSCALE
 70
     0
  9
$TREEDEPTH
 70
  3020
  9
$CMLSTYLE
  2
Standard
  9
$CMLJUST
 70
     0
  9
$CMLSCALE
 40
1.0
  9
$PROXYGRAPHICS
 70
     1
  9
$MEASUREMENT
 70
     1
  9
$CELWEIGHT
370
    -1
  9
$ENDCAPS
280
     0
  9
$JOINSTYLE
280
     0
  9
$LWDISPLAY
290
     1
  9
$INSUNITS
 70
     0
  9
$HYPERLINKBASE
  1

  9
$STYLESHEET
  1

  9
$XEDIT
290
     1
  9
$CEPSNTYPE
380
     0
  9
$PSTYLEMODE
290
     1
  9
$FINGERPRINTGUID
  2
{914a548b-d697-46a1-9343-eac679c0c5c0}
  9
$VERSIONGUID
  2
{FAEB1C32-E019-11D5-929B-00C0DF256EC4}
  9
$EXTNAMES
290
     1
  9
$PSVPSCALE
 40
0.0
  9
$OLESTARTUP
290
     0
  0
ENDSEC
  0
SECTION
  2
CLASSES
  0
CLASS
  1
ACDBDICTIONARYWDFLT
  2
AcDbDictionaryWithDefault
  3
ObjectDBX Classes
 90
        0
280
     0
281
     0
  0
CLASS
  1
VISUALSTYLE
  2
AcDbVisualStyle
  3
ObjectDBX Classes
 90
     4095
280
     0
281
     0
  0
CLASS
  1
MATERIAL
  2
AcDbMaterial
  3
ObjectDBX Classes
 90
     1153
280
     0
281
     0
  0
CLASS
  1
SCALE
  2
AcDbScale
  3
ObjectDBX Classes
 90
     1153
280
     0
281
     0
  0
CLASS
  1
TABLESTYLE
  2
AcDbTableStyle
  3
ObjectDBX Classes
 90
     4095
280
     0
281
     0
  0
CLASS
  1
MLEADERSTYLE
  2
AcDbMLeaderStyle
  3
ACDB_MLEADERSTYLE_CLASS
 90
     4095
280
     0
281
     0
  0
CLASS
  1
SUN
  2
AcDbSun
  3
SCENEOE
 90
     1153
280
     0
281
     0
  0
CLASS
  1
RASTERVARIABLES
  2
AcDbRasterVariables
  3
ISM
 90
        0
280
     0
281
     0
  0
CLASS
  1
DICTIONARYVAR
  2
AcDbDictionaryVar
  3
ObjectDBX Classes
 90
        0
280
     0
281
     0
  0
CLASS
  1
ACDBPLACEHOLDER
  2
AcDbPlaceHolder
  3
ObjectDBX Classes
 90
        0
280
     0
281
     0
  0
CLASS
  1
LAYOUT
  2
AcDbLayout
  3
ObjectDBX Classes
 90
        0
280
     0
281
     0
  0
ENDSEC
  0
SECTION
  2
TABLES
  0
TABLE
  2
VPORT
  5
8
102
{ACAD_XDICTIONARY
360
37A
102
}
330
0
100
AcDbSymbolTable
 70
     1
  0
VPORT
  5
29
330
8
100
AcDbSymbolTableRecord
100
AcDbViewportTableRecord
  2
*Active
 70
     0
 10
0.0
 20
0.0
 11
1.0
 21
1.0
 12
171.5327161778036
 22
165.5043436763562
 13
0.0
 23
0.0
 14
0.5
 24
0.5
 15
0.5
 25
0.5
 16
0.0
 26
0.0
 36
1.0
 17
0.0
 27
0.0
 37
0.0
 40
227.000878279652
 41
1.309018381447179
 42
50.0
 43
0.0
 44
0.0
 50
0.0
 51
0.0
 71
     0
 72
 20000
 73
     1
 74
     3
 75
     0
 76
     0
 77
     0
 78
     0
281
     0
 65
     1
110
0.0
120
0.0
130
0.0
111
1.0
121
0.0
131
0.0
112
0.0
122
1.0
132
0.0
 79
     0
146
0.0
  0
ENDTAB
  0
TABLE
  2
LTYPE
  5
5
330
0
100
AcDbSymbolTable
 70
     1
  0
LTYPE
  5
14
330
5
100
AcDbSymbolTableRecord
100
AcDbLinetypeTableRecord
  2
ByBlock
 70
     0
  3

 72
    65
 73
     0
 40
0.0
  0
LTYPE
  5
15
330
5
100
AcDbSymbolTableRecord
100
AcDbLinetypeTableRecord
  2
ByLayer
 70
     0
  3

 72
    65
 73
     0
 40
0.0
  0
LTYPE
  5
16
330
5
100
AcDbSymbolTableRecord
100
AcDbLinetypeTableRecord
  2
Continuous
 70
     0
  3
Solid line
 72
    65
 73
     0
 40
0.0
  0
ENDTAB
  0
TABLE
  2
LAYER
  5
2
330
0
100
AcDbSymbolTable
 70
     3
  0
LAYER
  5
10
330
2
100
AcDbSymbolTableRecord
100
AcDbLayerTableRecord
  2
0
 70
     0
 62
     7
  6
Continuous
370
    13
390
F
  0
LAYER
  5
70
330
2
100
AcDbSymbolTableRecord
100
AcDbLayerTableRecord
  2
レイヤー 1
 70
     0
 62
     7
  6
Continuous
370
    13
390
F
  0
LAYER
  5
71
330
2
100
AcDbSymbolTableRecord
100
AcDbLayerTableRecord
  2
rcviewportframe
 70
     0
 62
    -7
  6
Continuous
370
    -3
390
F
  0
ENDTAB
  0
TABLE
  2
STYLE
  5
3
330
0
100
AcDbSymbolTable
 70
     5
  0
STYLE
  5
11
330
3
100
AcDbSymbolTableRecord
100
AcDbTextStyleTableRecord
  2
Standard
 70
     0
 40
0.0
 41
1.0
 50
0.0
 71
     0
 42
0.2
  3
txt.shx
  4
extfont
  0
STYLE
  5
72
330
3
100
AcDbSymbolTableRecord
100
AcDbTextStyleTableRecord
  2
MS PGothic
 70
     0
 40
0.0
 41
1.0
 50
0.0
 71
     0
 42
0.2
  3
MS PGothic.ttf
  4

1001
ACAD
1000
ＭＳ Ｐゴシック
1071
    32818
  0
STYLE
  5
73
330
3
100
AcDbSymbolTableRecord
100
AcDbTextStyleTableRecord
  2
VERTICAL
 70
     4
 40
0.0
 41
1.0
 50
0.0
 71
     0
 42
0.2
  3
txt.shx
  4
extfont
  0
STYLE
  5
74
330
3
100
AcDbSymbolTableRecord
100
AcDbTextStyleTableRecord
  2
VERTICAL MS PGothic
 70
     0
 40
0.0
 41
1.0
 50
0.0
 71
     0
 42
0.2
  3
MS PGothic.ttf
  4

1001
ACAD
1000
@ＭＳ Ｐゴシック
1071
    32818
  0
STYLE
  5
36C
330
3
100
AcDbSymbolTableRecord
100
AcDbTextStyleTableRecord
  2
HGPｺﾞｼｯｸM
 70
     0
 40
0.0
 41
1.0
 50
0.0
 71
     0
 42
0.2
  3
HGRGM.TTC
  4
extfont
1001
ACAD
1000
HGPｺﾞｼｯｸM
1071
    32818
  0
ENDTAB
  0
TABLE
  2
VIEW
  5
6
330
0
100
AcDbSymbolTable
 70
     0
  0
ENDTAB
  0
TABLE
  2
UCS
  5
7
330
0
100
AcDbSymbolTable
 70
     0
  0
ENDTAB
  0
TABLE
  2
APPID
  5
9
330
0
100
AcDbSymbolTable
 70
     3
  0
APPID
  5
12
330
9
100
AcDbSymbolTableRecord
100
AcDbRegAppTableRecord
  2
ACAD
 70
     0
  0
APPID
  5
6E
330
9
100
AcDbSymbolTableRecord
100
AcDbRegAppTableRecord
  2
RootPro CAD
 70
     0
  0
APPID
  5
3B4
330
9
100
AcDbSymbolTableRecord
100
AcDbRegAppTableRecord
  2
ACAD_MLEADERVER
 70
     0
  0
ENDTAB
  0
TABLE
  2
DIMSTYLE
  5
A
330
0
100
AcDbSymbolTable
 70
     1
100
AcDbDimStyleTable
  0
DIMSTYLE
105
27
330
A
100
AcDbSymbolTableRecord
100
AcDbDimStyleTableRecord
  2
Standard
 70
     0
178
     0
340
11
  0
ENDTAB
  0
TABLE
  2
BLOCK_RECORD
  5
1
330
0
100
AcDbSymbolTable
 70
     0
  0
BLOCK_RECORD
  5
1F
330
1
100
AcDbSymbolTableRecord
100
AcDbBlockTableRecord
  2
*Model_Space
340
22
  0
BLOCK_RECORD
  5
1B
330
1
100
AcDbSymbolTableRecord
100
AcDbBlockTableRecord
  2
*Paper_Space
340
1E
  0
ENDTAB
  0
ENDSEC
  0
SECTION
  2
BLOCKS
  0
BLOCK
  5
20
330
1F
100
AcDbEntity
  8
0
100
AcDbBlockBegin
  2
*Model_Space
 70
     0
 10
0.0
 20
0.0
 30
0.0
  3
*Model_Space
  1

  0
ENDBLK
  5
21
330
1F
100
AcDbEntity
  8
0
100
AcDbBlockEnd
  0
BLOCK
  5
1C
330
1B
100
AcDbEntity
 67
     1
  8
0
100
AcDbBlockBegin
  2
*Paper_Space
 70
     0
 10
0.0
 20
0.0
 30
0.0
  3
*Paper_Space
  1

  0
ENDBLK
  5
1D
330
1B
100
AcDbEntity
 67
     1
  8
0
100
AcDbBlockEnd
  0
ENDSEC
  0
SECTION
  2
ENTITIES
  0
LINE
  5
75
330
1F
100
AcDbEntity
  8
レイヤー 1
 62
     7
370
    13
100
AcDbLine
 10
48.91418864769437
 20
120.0196804468687
 30
0.0
 11
48.91418864769437
 21
120.1044297958058
 31
0.0
  0
LINE
  5
76
330
1F
100
AcDbEntity
  8
レイヤー 1
 62
     7
370
    13
100
AcDbLine
 10
48.02518175772565
 20
128.9097493465559
 30
0.0
 11
37.06082086636951
 21
125.8617011159811
 31
0.0
  0
LINE
  5
77
330
1F
100
AcDbEntity
  8
レイヤー 1
 62
     7
370
    13
100
AcDbLine
 10
42.98759088441906
 20
126.0734022335497
 30
0.0
 11
42.90284153548194
 21
126.1157769080183
 31
0.0
  0
LINE
  5
78
330
1F
100
AcDbEntity
  8
レイヤー 1
 62
     7
370
    13
100
AcDbLine
 10
36.84929200357519
 20
125.6923746728811
 30
0.0
 11
36.55284153706944
 21
117.479611545594
 31
0.0
  0
LINE
  5
79
330
1F
100
AcDbEntity
  8
レイヤー 1
 62
     7
370
    13
100
AcDbLine
 10
312.9895425855818
 20
64.90159777835653
 30
0.0
 11
53.86720242683808
 21
116.0402506518566
 31
0.0
  0
LINE
  5
7A
330
1F
100
AcDbEntity
  8
レイヤー 1
 62
     7
370
    13
100
AcDbLine
 10
52.5549655565064
 20
114.5163126639563
 30
0.0
 11
311.6349310407816
 21
63.37765979045629
 31
0.0
  0
LINE
  5
7B
330
1F
100
AcDbEntity
  8
レイヤー 1
 62
     7
370
    13
100
AcDbLine
 10
308.6714599043697
 20
69.72765978886879
 30
0.0
 11
49.54929200040019
 21
120.9086873368374
 31
0.0
  0
LINE
  5
7C
330
1F
100
AcDbEntity
  8
レイヤー 1
 62
     7
370
    13
100
AcDbLine
 10
47.98297933803133
 20
120.4007080075373
 30
0.0
 11
49.93031956106881
 21
120.0196804468687
 31
0.0
  0
LINE
  5
7D
330
1F
100
AcDbEntity
  8
レイヤー 1
 62
     7
370
    13
100
AcDbLine
 10
307.2744736851008
 20
77.8980482416873
 30
0.0
 11
48.15230578113136
 21
129.0790757896559
 31
0.0
  0
LINE
  5
7E
330
1F
100
AcDbEntity
  8
レイヤー 1
 62
     7
370
    13
100
AcDbLine
 10
31.21897245203138
 20
108.5473402262125
 30
0.0
 11
290.2987656815322
 21
57.40868735271242
 31
0.0
  0
LINE
  5
7F
330
1F
100
AcDbEntity
  8
レイヤー 1
 62
     7
370
    13
100
AcDbLine
 10
31.51525066376286
 20
109.1400689044497
 30
0.0
 11
30.11826444449406
 21
109.3939724417126
 31
0.0
  0
LINE
  5
80
330
1F
100
AcDbEntity
  8
レイヤー 1
 62
     7
370
    13
100
AcDbLine
 10
70.12322998353795
 20
105.9226942307749
 30
0.0
 11
70.03865288937507
 21
107.0657769127808
 31
0.0
  0
POINT
  5
81
330
1F
100
AcDbEntity
  8
レイヤー 1
 62
     7
370
    13
100
AcDbPoint
 10
68.93794488183775
 20
106.0920206738749
 30
0.0
  0
LINE
  5
82
330
1F
100
AcDbEntity
  8
レイヤー 1
 62
     7
370
    13
100
AcDbLine
 10
68.93794488183775
 20
106.0920206738749
 30
0.0
 11
68.98031955630631
 21
106.0920206738749
 31
0.0
  0
LINE
  5
83
330
1F
100
AcDbEntity
  8
レイヤー 1
 62
     7
370
    13
100
AcDbLine
 10
68.98031955630631
 20
106.0920206738749
 30
0.0
 11
68.98031955630631
 21
106.0496459994063
 31
0.0
  0
LINE
  5
84
330
1F
100
AcDbEntity
  8
レイヤー 1
 62
     7
370
    13
100
AcDbLine
 10
68.93794488183775
 20
106.0920206738749
 30
0.0
 11
68.93794488183775
 21
106.0496459994063
 31
0.0
  0
LINE
  5
85
330
1F
100
AcDbEntity
  8
レイヤー 1
 62
     7
370
    13
100
AcDbLine
 10
68.98031955630631
 20
106.0496459994063
 30
0.0
 11
70.08085530906936
 21
105.8379448818377
 31
0.0
  0
POINT
  5
86
330
1F
100
AcDbEntity
  8
レイヤー 1
 62
     7
370
    13
100
AcDbPoint
 10
70.03865288937507
 20
107.0657769127808
 30
0.0
  0
LINE
  5
87
330
1F
100
AcDbEntity
  8
レイヤー 1
 62
     7
370
    13
100
AcDbLine
 10
70.03865288937507
 20
107.0657769127808
 30
0.0
 11
69.99627821490648
 21
107.0657769127808
 31
0.0
  0
LINE
  5
88
330
1F
100
AcDbEntity
  8
レイヤー 1
 62
     7
370
    13
100
AcDbLine
 10
69.99627821490648
 20
107.0657769127808
 30
0.0
 11
69.99627821490648
 21
107.1079793324751
 31
0.0
  0
POINT
  5
89
330
1F
100
AcDbEntity
  8
レイヤー 1
 62
     7
370
    13
100
AcDbPoint
 10
70.08085530906936
 20
105.8379448818377
 30
0.0
  0
LINE
  5
8A
330
1F
100
AcDbEntity
  8
レイヤー 1
 62
     7
370
    13
100
AcDbLine
 10
70.08085530906936
 20
105.8379448818377
 30
0.0
 11
70.12322998353795
 21
105.8803195563063
 31
0.0
  0
LINE
  5
8B
330
1F
100
AcDbEntity
  8
レイヤー 1
 62
     7
370
    13
100
AcDbLine
 10
70.12322998353795
 20
105.8803195563063
 30
0.0
 11
70.12322998353795
 21
105.9226942307749
 31
0.0
  0
LINE
  5
8C
330
1F
100
AcDbEntity
  8
レイヤー 1
 62
     7
370
    13
100
AcDbLine
 10
256.8555012584695
 20
69.05035401646866
 30
0.0
 11
256.7287217446123
 21
70.1932644437003
 31
0.0
  0
POINT
  5
8D
330
1F
100
AcDbEntity
  8
レイヤー 1
 62
     7
370
    13
100
AcDbPoint
 10
255.6703884115435
 20
69.21968045956869
 30
0.0
  0
LINE
  5
8E
330
1F
100
AcDbEntity
  8
レイヤー 1
 62
     7
370
    13
100
AcDbLine
 10
255.628013737075
 20
69.21968045956869
 30
0.0
 11
255.6703884115435
 21
69.21968045956869
 31
0.0
  0
LINE
  5
8F
330
1F
100
AcDbEntity
  8
レイヤー 1
 62
     7
370
    13
100
AcDbLine
 10
255.6703884115435
 20
69.21968045956869
 30
0.0
 11
256.7707519095324
 21
69.0079793420001
 31
0.0
  0
POINT
  5
90
330
1F
100
AcDbEntity
  8
レイヤー 1
 62
     7
370
    13
100
AcDbPoint
 10
256.7287217446123
 20
70.1932644437003
 30
0.0
  0
LINE
  5
91
330
1F
100
AcDbEntity
  8
レイヤー 1
 62
     7
370
    13
100
AcDbLine
 10
256.7287217446123
 20
70.1932644437003
 30
0.0
 11
256.7287217446123
 21
70.23563911816886
 31
0.0
  0
LINE
  5
92
330
1F
100
AcDbEntity
  8
レイヤー 1
 62
     7
370
    13
100
AcDbLine
 10
256.7287217446123
 20
70.23563911816886
 30
0.0
 11
256.6863470701437
 21
70.23563911816886
 31
0.0
  0
POINT
  5
93
330
1F
100
AcDbEntity
  8
レイヤー 1
 62
     7
370
    13
100
AcDbPoint
 10
256.7707519095324
 20
69.0079793420001
 30
0.0
  0
LINE
  5
94
330
1F
100
AcDbEntity
  8
レイヤー 1
 62
     7
370
    13
100
AcDbLine
 10
256.7707519095324
 20
69.0079793420001
 30
0.0
 11
256.8131265840009
 21
69.0079793420001
 31
0.0
  0
LINE
  5
95
330
1F
100
AcDbEntity
  8
レイヤー 1
 62
     7
370
    13
100
AcDbLine
 10
256.8131265840009
 20
69.0079793420001
 30
0.0
 11
256.8555012584695
 21
69.0079793420001
 31
0.0
  0
LINE
  5
96
330
1F
100
AcDbEntity
  8
レイヤー 1
 62
     7
370
    13
100
AcDbLine
 10
256.8555012584695
 20
69.0079793420001
 30
0.0
 11
256.8555012584695
 21
69.05035401646866
 31
0.0
  0
LINE
  5
97
330
1F
100
AcDbEntity
  8
レイヤー 1
 62
     7
370
    13
100
AcDbLine
 10
296.2257079543561
 20
63.46240913939342
 30
0.0
 11
297.8342230364192
 21
63.16595867288767
 31
0.0
  0
LINE
  5
98
330
1F
100
AcDbEntity
  8
レイヤー 1
 62
     7
370
    13
100
AcDbLine
 10
39.008161089407
 20
114.2624091266934
 30
0.0
 11
40.5746460065501
 21
113.9235839857191
 31
0.0
  0
LINE
  5
99
330
1F
100
AcDbEntity
  8
レイヤー 1
 62
     7
370
    13
100
AcDbLine
 10
49.71861844350022
 20
119.8503540037687
 30
0.0
 11
48.1099311066628
 21
120.1466322155002
 31
0.0
  0
LINE
  5
9A
330
1F
100
AcDbEntity
  8
レイヤー 1
 62
     7
370
    13
100
AcDbLine
 10
47.98297933803133
 20
120.1044297958058
 30
0.0
 11
36.84929200357519
 21
117.0140068907625
 31
0.0
  0
LINE
  5
9B
330
1F
100
AcDbEntity
  8
レイヤー 1
 62
     7
370
    13
100
AcDbLine
 10
47.94060466356277
 20
120.4430826820059
 30
0.0
 11
47.94060466356277
 21
120.4007080075373
 31
0.0
  0
LINE
  5
9C
330
1F
100
AcDbEntity
  8
レイヤー 1
 62
     7
370
    13
100
AcDbLine
 10
47.94060466356277
 20
120.4007080075373
 30
0.0
 11
47.94060466356277
 21
120.3583333330688
 31
0.0
  0
LINE
  5
9D
330
1F
100
AcDbEntity
  8
レイヤー 1
 62
     7
370
    13
100
AcDbLine
 10
47.94060466356277
 20
120.3583333330688
 30
0.0
 11
47.94060466356277
 21
120.3159586586002
 31
0.0
  0
LINE
  5
9E
330
1F
100
AcDbEntity
  8
レイヤー 1
 62
     7
370
    13
100
AcDbLine
 10
41.08262533585017
 20
122.2210964619433
 30
0.0
 11
41.04025066138161
 21
122.2210964619433
 31
0.0
  0
LINE
  5
9F
330
1F
100
AcDbEntity
  8
レイヤー 1
 62
     7
370
    13
100
AcDbLine
 10
36.51063911737512
 20
115.6593953459622
 30
0.0
 11
36.51063911737512
 21
115.6170206714937
 31
0.0
  0
LINE
  5
A0
330
1F
100
AcDbEntity
  8
レイヤー 1
 62
     7
370
    13
100
AcDbLine
 10
36.51063911737512
 20
115.6170206714937
 30
0.0
 11
36.51063911737512
 21
115.5746459970251
 31
0.0
  0
LINE
  5
A1
330
1F
100
AcDbEntity
  8
レイヤー 1
 62
     7
370
    13
100
AcDbLine
 10
36.51063911737512
 20
115.5746459970251
 30
0.0
 11
36.51063911737512
 21
115.5324435773308
 31
0.0
  0
LINE
  5
A2
330
1F
100
AcDbEntity
  8
レイヤー 1
 62
     7
370
    13
100
AcDbLine
 10
36.51063911737512
 20
115.5324435773308
 30
0.0
 11
36.51063911737512
 21
115.4900689028622
 31
0.0
  0
LINE
  5
A3
330
1F
100
AcDbEntity
  8
レイヤー 1
 62
     7
370
    13
100
AcDbLine
 10
36.51063911737512
 20
115.4900689028622
 30
0.0
 11
36.55284153706944
 21
115.4476942283936
 31
0.0
  0
LINE
  5
A4
330
1F
100
AcDbEntity
  8
レイヤー 1
 62
     7
370
    13
100
AcDbLine
 10
36.55284153706944
 20
115.4476942283936
 30
0.0
 11
36.55284153706944
 21
115.4053195539251
 31
0.0
  0
LINE
  5
A5
330
1F
100
AcDbEntity
  8
レイヤー 1
 62
     7
370
    13
100
AcDbLine
 10
36.55284153706944
 20
115.4053195539251
 30
0.0
 11
36.55284153706944
 21
115.3629448794565
 31
0.0
  0
LINE
  5
A6
330
1F
100
AcDbEntity
  8
レイヤー 1
 62
     7
370
    13
100
AcDbLine
 10
36.55284153706944
 20
115.3629448794565
 30
0.0
 11
36.595216211538
 21
115.3629448794565
 31
0.0
  0
LINE
  5
A7
330
1F
100
AcDbEntity
  8
レイヤー 1
 62
     7
370
    13
100
AcDbLine
 10
36.595216211538
 20
115.3629448794565
 30
0.0
 11
36.595216211538
 21
115.3207424597622
 31
0.0
  0
LINE
  5
A8
330
1F
100
AcDbEntity
  8
レイヤー 1
 62
     7
370
    13
100
AcDbLine
 10
36.595216211538
 20
115.3207424597622
 30
0.0
 11
36.63759088600656
 21
115.3207424597622
 31
0.0
  0
LINE
  5
A9
330
1F
100
AcDbEntity
  8
レイヤー 1
 62
     7
370
    13
100
AcDbLine
 10
36.63759088600656
 20
115.3207424597622
 30
0.0
 11
36.63759088600656
 21
115.2783677852936
 31
0.0
  0
LINE
  5
AA
330
1F
100
AcDbEntity
  8
レイヤー 1
 62
     7
370
    13
100
AcDbLine
 10
36.63759088600656
 20
116.8023057731939
 30
0.0
 11
36.63759088600656
 21
116.7599310987253
 31
0.0
  0
LINE
  5
AB
330
1F
100
AcDbEntity
  8
レイヤー 1
 62
     7
370
    13
100
AcDbLine
 10
36.63759088600656
 20
116.7599310987253
 30
0.0
 11
36.595216211538
 21
116.7599310987253
 31
0.0
  0
LINE
  5
AC
330
1F
100
AcDbEntity
  8
レイヤー 1
 62
     7
370
    13
100
AcDbLine
 10
36.595216211538
 20
116.7599310987253
 30
0.0
 11
36.595216211538
 21
116.717728679031
 31
0.0
  0
LINE
  5
AD
330
1F
100
AcDbEntity
  8
レイヤー 1
 62
     7
370
    13
100
AcDbLine
 10
36.595216211538
 20
116.717728679031
 30
0.0
 11
36.595216211538
 21
116.6753540045624
 31
0.0
  0
LINE
  5
AE
330
1F
100
AcDbEntity
  8
レイヤー 1
 62
     7
370
    13
100
AcDbLine
 10
36.595216211538
 20
116.6753540045624
 30
0.0
 11
36.55284153706944
 21
116.6329793300938
 31
0.0
  0
LINE
  5
AF
330
1F
100
AcDbEntity
  8
レイヤー 1
 62
     7
370
    13
100
AcDbLine
 10
36.55284153706944
 20
116.6329793300938
 30
0.0
 11
36.55284153706944
 21
116.5907769103995
 31
0.0
  0
LINE
  5
B0
330
1F
100
AcDbEntity
  8
レイヤー 1
 62
     7
370
    13
100
AcDbLine
 10
36.55284153706944
 20
116.5907769103995
 30
0.0
 11
36.55284153706944
 21
116.548402235931
 31
0.0
  0
LINE
  5
B1
330
1F
100
AcDbEntity
  8
レイヤー 1
 62
     7
370
    13
100
AcDbLine
 10
36.55284153706944
 20
116.548402235931
 30
0.0
 11
36.55284153706944
 21
116.5060275614624
 31
0.0
  0
LINE
  5
B2
330
1F
100
AcDbEntity
  8
レイヤー 1
 62
     7
370
    13
100
AcDbLine
 10
36.55284153706944
 20
116.5060275614624
 30
0.0
 11
36.55284153706944
 21
116.4636528869938
 31
0.0
  0
LINE
  5
B3
330
1F
100
AcDbEntity
  8
レイヤー 1
 62
     7
370
    13
100
AcDbLine
 10
36.84929200357519
 20
117.0140068907625
 30
0.0
 11
36.8069173291066
 21
117.0140068907625
 31
0.0
  0
LINE
  5
B4
330
1F
100
AcDbEntity
  8
レイヤー 1
 62
     7
370
    13
100
AcDbLine
 10
36.8069173291066
 20
117.0140068907625
 30
0.0
 11
36.8069173291066
 21
116.9716322162939
 31
0.0
  0
LINE
  5
B5
330
1F
100
AcDbEntity
  8
レイヤー 1
 62
     7
370
    13
100
AcDbLine
 10
36.8069173291066
 20
116.9716322162939
 30
0.0
 11
36.76454265463803
 21
116.9716322162939
 31
0.0
  0
LINE
  5
B6
330
1F
100
AcDbEntity
  8
レイヤー 1
 62
     7
370
    13
100
AcDbLine
 10
36.76454265463803
 20
116.9716322162939
 30
0.0
 11
36.72216798016947
 21
116.9294297965996
 31
0.0
  0
LINE
  5
B7
330
1F
100
AcDbEntity
  8
レイヤー 1
 62
     7
370
    13
100
AcDbLine
 10
36.72216798016947
 20
116.9294297965996
 30
0.0
 11
36.67996556047515
 21
116.9294297965996
 31
0.0
  0
LINE
  5
B8
330
1F
100
AcDbEntity
  8
レイヤー 1
 62
     7
370
    13
100
AcDbLine
 10
36.67996556047515
 20
116.9294297965996
 30
0.0
 11
36.67996556047515
 21
116.887055122131
 31
0.0
  0
LINE
  5
B9
330
1F
100
AcDbEntity
  8
レイヤー 1
 62
     7
370
    13
100
AcDbLine
 10
36.67996556047515
 20
116.887055122131
 30
0.0
 11
36.67996556047515
 21
116.8446804476624
 31
0.0
  0
LINE
  5
BA
330
1F
100
AcDbEntity
  8
レイヤー 1
 62
     7
370
    13
100
AcDbLine
 10
36.67996556047515
 20
116.8446804476624
 30
0.0
 11
36.63759088600656
 21
116.8446804476624
 31
0.0
  0
LINE
  5
BB
330
1F
100
AcDbEntity
  8
レイヤー 1
 62
     7
370
    13
100
AcDbLine
 10
36.63759088600656
 20
116.8446804476624
 30
0.0
 11
36.63759088600656
 21
116.8023057731939
 31
0.0
  0
LINE
  5
BC
330
1F
100
AcDbEntity
  8
レイヤー 1
 62
     7
370
    13
100
AcDbLine
 10
36.55284153706944
 20
116.4636528869938
 30
0.0
 11
36.51063911737512
 21
115.6593953459622
 31
0.0
  0
LINE
  5
BD
330
1F
100
AcDbEntity
  8
レイヤー 1
 62
     7
370
    13
100
AcDbLine
 10
40.78617486934442
 20
113.8813815660248
 30
0.0
 11
296.0985839309504
 21
63.46240913939342
 31
0.0
  0
LINE
  5
BE
330
1F
100
AcDbEntity
  8
レイヤー 1
 62
     7
370
    13
100
AcDbLine
 10
50.05727132970026
 20
119.7657769096058
 30
0.0
 11
49.71861844350022
 21
119.8503540037687
 31
0.0
  0
POINT
  5
BF
330
1F
100
AcDbEntity
  8
レイヤー 1
 62
     7
370
    13
100
AcDbPoint
 10
47.85585531462561
 20
120.3159586586002
 30
0.0
  0
LINE
  5
C0
330
1F
100
AcDbEntity
  8
レイヤー 1
 62
     7
370
    13
100
AcDbLine
 10
47.85585531462561
 20
120.3159586586002
 30
0.0
 11
47.85585531462561
 21
120.2735839841316
 31
0.0
  0
LINE
  5
C1
330
1F
100
AcDbEntity
  8
レイヤー 1
 62
     7
370
    13
100
AcDbLine
 10
47.85585531462561
 20
120.2735839841316
 30
0.0
 11
47.85585531462561
 21
120.2313815644373
 31
0.0
  0
LINE
  5
C2
330
1F
100
AcDbEntity
  8
レイヤー 1
 62
     7
370
    13
100
AcDbLine
 10
47.85585531462561
 20
120.2313815644373
 30
0.0
 11
47.8982299890942
 21
120.2313815644373
 31
0.0
  0
LINE
  5
C3
330
1F
100
AcDbEntity
  8
レイヤー 1
 62
     7
370
    13
100
AcDbLine
 10
47.8982299890942
 20
120.2313815644373
 30
0.0
 11
47.94060466356277
 21
120.2313815644373
 31
0.0
  0
LINE
  5
C4
330
1F
100
AcDbEntity
  8
レイヤー 1
 62
     7
370
    13
100
AcDbLine
 10
47.94060466356277
 20
120.3159586586002
 30
0.0
 11
47.85585531462561
 21
120.3159586586002
 31
0.0
  0
LINE
  5
C5
330
1F
100
AcDbEntity
  8
レイヤー 1
 62
     7
370
    13
100
AcDbLine
 10
47.94060466356277
 20
120.3159586586002
 30
0.0
 11
47.94060466356277
 21
120.2313815644373
 31
0.0
  0
LINE
  5
C6
330
1F
100
AcDbEntity
  8
レイヤー 1
 62
     7
370
    13
100
AcDbLine
 10
47.94060466356277
 20
120.2313815644373
 30
0.0
 11
36.595216211538
 21
117.056381565231
 31
0.0
  0
LINE
  5
C7
330
1F
100
AcDbEntity
  8
レイヤー 1
 62
     7
370
    13
100
AcDbLine
 10
36.51063911737512
 20
117.1833333338625
 30
0.0
 11
36.51063911737512
 21
117.1409586593939
 31
0.0
  0
LINE
  5
C8
330
1F
100
AcDbEntity
  8
レイヤー 1
 62
     7
370
    13
100
AcDbLine
 10
36.51063911737512
 20
117.1409586593939
 30
0.0
 11
36.51063911737512
 21
117.0985839849254
 31
0.0
  0
LINE
  5
C9
330
1F
100
AcDbEntity
  8
レイヤー 1
 62
     7
370
    13
100
AcDbLine
 10
36.51063911737512
 20
117.0985839849254
 30
0.0
 11
36.55284153706944
 21
117.0985839849254
 31
0.0
  0
LINE
  5
CA
330
1F
100
AcDbEntity
  8
レイヤー 1
 62
     7
370
    13
100
AcDbLine
 10
36.55284153706944
 20
117.0985839849254
 30
0.0
 11
36.55284153706944
 21
117.056381565231
 31
0.0
  0
LINE
  5
CB
330
1F
100
AcDbEntity
  8
レイヤー 1
 62
     7
370
    13
100
AcDbLine
 10
36.55284153706944
 20
117.056381565231
 30
0.0
 11
36.595216211538
 21
117.056381565231
 31
0.0
  0
LINE
  5
CC
330
1F
100
AcDbEntity
  8
レイヤー 1
 62
     7
370
    13
100
AcDbLine
 10
36.51063911737512
 20
117.1833333338625
 30
0.0
 11
36.595216211538
 21
117.1833333338625
 31
0.0
  0
LINE
  5
CD
330
1F
100
AcDbEntity
  8
レイヤー 1
 62
     7
370
    13
100
AcDbLine
 10
36.595216211538
 20
117.1833333338625
 30
0.0
 11
47.77127822046273
 21
120.3159586586002
 31
0.0
  0
LINE
  5
CE
330
1F
100
AcDbEntity
  8
レイヤー 1
 62
     7
370
    13
100
AcDbLine
 10
47.77127822046273
 20
120.3159586586002
 30
0.0
 11
47.85585531462561
 21
120.3159586586002
 31
0.0
  0
LINE
  5
CF
330
1F
100
AcDbEntity
  8
レイヤー 1
 62
     7
370
    13
100
AcDbLine
 10
47.94060466356277
 20
120.3159586586002
 30
0.0
 11
48.87198622800005
 21
120.1466322155002
 31
0.0
  0
LINE
  5
D0
330
1F
100
AcDbEntity
  8
レイヤー 1
 62
     7
370
    13
100
AcDbLine
 10
48.87198622800005
 20
120.0196804468687
 30
0.0
 11
48.87198622800005
 21
120.1466322155002
 31
0.0
  0
LINE
  5
D1
330
1F
100
AcDbEntity
  8
レイヤー 1
 62
     7
370
    13
100
AcDbLine
 10
47.94060466356277
 20
120.2313815644373
 30
0.0
 11
48.87198622800005
 21
120.0196804468687
 31
0.0
  0
LINE
  5
D2
330
1F
100
AcDbEntity
  8
レイヤー 1
 62
     7
370
    13
100
AcDbLine
 10
48.87198622800005
 20
119.9773057724001
 30
0.0
 11
48.91418864769437
 21
119.9773057724001
 31
0.0
  0
LINE
  5
D3
330
1F
100
AcDbEntity
  8
レイヤー 1
 62
     7
370
    13
100
AcDbLine
 10
48.91418864769437
 20
119.9773057724001
 30
0.0
 11
48.91418864769437
 21
120.0196804468687
 31
0.0
  0
LINE
  5
D4
330
1F
100
AcDbEntity
  8
レイヤー 1
 62
     7
370
    13
100
AcDbLine
 10
48.91418864769437
 20
120.0196804468687
 30
0.0
 11
48.87198622800005
 21
120.0196804468687
 31
0.0
  0
LINE
  5
D5
330
1F
100
AcDbEntity
  8
レイヤー 1
 62
     7
370
    13
100
AcDbLine
 10
48.87198622800005
 20
119.9773057724001
 30
0.0
 11
48.87198622800005
 21
119.9349310979315
 31
0.0
  0
LINE
  5
D6
330
1F
100
AcDbEntity
  8
レイヤー 1
 62
     7
370
    13
100
AcDbLine
 10
36.595216211538
 20
117.056381565231
 30
0.0
 11
36.84929200357519
 21
117.0140068907625
 31
0.0
  0
POINT
  5
D7
330
1F
100
AcDbEntity
  8
レイヤー 1
 62
     7
370
    13
100
AcDbPoint
 10
47.85585531462561
 20
120.6124091251059
 30
0.0
  0
LINE
  5
D8
330
1F
100
AcDbEntity
  8
レイヤー 1
 62
     7
370
    13
100
AcDbLine
 10
47.85585531462561
 20
120.6124091251059
 30
0.0
 11
47.81365289493132
 21
120.6124091251059
 31
0.0
  0
LINE
  5
D9
330
1F
100
AcDbEntity
  8
レイヤー 1
 62
     7
370
    13
100
AcDbLine
 10
48.06755643219424
 20
128.8249999976188
 30
0.0
 11
47.81365289493132
 21
120.6124091251059
 31
0.0
  0
LINE
  5
DA
330
1F
100
AcDbEntity
  8
レイヤー 1
 62
     7
370
    13
100
AcDbLine
 10
48.15230578113136
 20
128.8249999976188
 30
0.0
 11
48.1099311066628
 21
128.8249999976188
 31
0.0
  0
LINE
  5
DB
330
1F
100
AcDbEntity
  8
レイヤー 1
 62
     7
370
    13
100
AcDbLine
 10
48.1099311066628
 20
128.8249999976188
 30
0.0
 11
48.06755643219424
 21
128.8249999976188
 31
0.0
  0
LINE
  5
DC
330
1F
100
AcDbEntity
  8
レイヤー 1
 62
     7
370
    13
100
AcDbLine
 10
47.81365289493132
 20
120.6124091251059
 30
0.0
 11
47.85585531462561
 21
120.6124091251059
 31
0.0
  0
LINE
  5
DD
330
1F
100
AcDbEntity
  8
レイヤー 1
 62
     7
370
    13
100
AcDbLine
 10
36.595216211538
 20
117.479611545594
 30
0.0
 11
36.84929200357519
 21
125.6923746728811
 31
0.0
  0
LINE
  5
DE
330
1F
100
AcDbEntity
  8
レイヤー 1
 62
     7
370
    13
100
AcDbLine
 10
36.84929200357519
 20
125.6923746728811
 30
0.0
 11
36.97624377220663
 21
125.7347493473496
 31
0.0
  0
LINE
  5
DF
330
1F
100
AcDbEntity
  8
レイヤー 1
 62
     7
370
    13
100
AcDbLine
 10
36.97624377220663
 20
125.7347493473496
 30
0.0
 11
36.97624377220663
 21
125.776951767044
 31
0.0
  0
LINE
  5
E0
330
1F
100
AcDbEntity
  8
レイヤー 1
 62
     7
370
    13
100
AcDbLine
 10
36.97624377220663
 20
125.776951767044
 30
0.0
 11
47.98297933803133
 21
128.8249999976188
 31
0.0
  0
LINE
  5
E1
330
1F
100
AcDbEntity
  8
レイヤー 1
 62
     7
370
    13
100
AcDbLine
 10
47.98297933803133
 20
128.8249999976188
 30
0.0
 11
47.98297933803133
 21
128.7826253231502
 31
0.0
  0
LINE
  5
E2
330
1F
100
AcDbEntity
  8
レイヤー 1
 62
     7
370
    13
100
AcDbLine
 10
47.98297933803133
 20
128.7826253231502
 30
0.0
 11
48.06755643219424
 21
128.8249999976188
 31
0.0
  0
LINE
  5
E3
330
1F
100
AcDbEntity
  8
レイヤー 1
 62
     7
370
    13
100
AcDbLine
 10
47.81365289493132
 20
120.6124091251059
 30
0.0
 11
47.77127822046273
 21
120.3159586586002
 31
0.0
  0
LINE
  5
E4
330
1F
100
AcDbEntity
  8
レイヤー 1
 62
     7
370
    13
100
AcDbLine
 10
36.595216211538
 20
117.1833333338625
 30
0.0
 11
36.595216211538
 21
117.479611545594
 31
0.0
  0
LINE
  5
E5
330
1F
100
AcDbEntity
  8
レイヤー 1
 62
     7
370
    13
100
AcDbLine
 10
42.31028511201896
 20
126.0734022335497
 30
0.0
 11
42.31028511201896
 21
126.1157769080183
 31
0.0
  0
LINE
  5
E6
330
1F
100
AcDbEntity
  8
レイヤー 1
 62
     7
370
    13
100
AcDbLine
 10
42.31028511201896
 20
126.0734022335497
 30
0.0
 11
42.2679104375504
 21
126.0310275590811
 31
0.0
  0
LINE
  5
E7
330
1F
100
AcDbEntity
  8
レイヤー 1
 62
     7
370
    13
100
AcDbLine
 10
42.2679104375504
 20
126.0310275590811
 30
0.0
 11
42.18316108861325
 21
125.9886528846126
 31
0.0
  0
LINE
  5
E8
330
1F
100
AcDbEntity
  8
レイヤー 1
 62
     7
370
    13
100
AcDbLine
 10
42.18316108861325
 20
125.9886528846126
 30
0.0
 11
42.09858399445037
 21
125.946278210144
 31
0.0
  0
LINE
  5
E9
330
1F
100
AcDbEntity
  8
レイヤー 1
 62
     7
370
    13
100
AcDbLine
 10
42.09858399445037
 20
125.9886528846126
 30
0.0
 11
42.09858399445037
 21
125.946278210144
 31
0.0
  0
LINE
  5
EA
330
1F
100
AcDbEntity
  8
レイヤー 1
 62
     7
370
    13
100
AcDbLine
 10
41.92925755135033
 20
121.120388454406
 30
0.0
 11
41.67518175931315
 21
121.2049655485689
 31
0.0
  0
LINE
  5
EB
330
1F
100
AcDbEntity
  8
レイヤー 1
 62
     7
370
    13
100
AcDbLine
 10
41.67518175931315
 20
121.2049655485689
 30
0.0
 11
41.42127822205023
 21
121.3742919916689
 31
0.0
  0
LINE
  5
EC
330
1F
100
AcDbEntity
  8
レイヤー 1
 62
     7
370
    13
100
AcDbLine
 10
41.42127822205023
 20
121.3742919916689
 30
0.0
 11
41.20957710448164
 21
121.6283677837061
 31
0.0
  0
LINE
  5
ED
330
1F
100
AcDbEntity
  8
レイヤー 1
 62
     7
370
    13
100
AcDbLine
 10
41.20957710448164
 20
121.6283677837061
 30
0.0
 11
41.04025066138161
 21
121.9246459954376
 31
0.0
  0
LINE
  5
EE
330
1F
100
AcDbEntity
  8
レイヤー 1
 62
     7
370
    13
100
AcDbLine
 10
41.04025066138161
 20
121.9246459954376
 30
0.0
 11
40.91329889275016
 21
122.3056735561062
 31
0.0
  0
LINE
  5
EF
330
1F
100
AcDbEntity
  8
レイヤー 1
 62
     7
370
    13
100
AcDbLine
 10
40.91329889275016
 20
122.3056735561062
 30
0.0
 11
40.87092421828157
 21
122.7712782109378
 31
0.0
  0
LINE
  5
F0
330
1F
100
AcDbEntity
  8
レイヤー 1
 62
     7
370
    13
100
AcDbLine
 10
40.87092421828157
 20
122.7712782109378
 30
0.0
 11
40.82854954381301
 21
123.2370551205435
 31
0.0
  0
LINE
  5
F1
330
1F
100
AcDbEntity
  8
レイヤー 1
 62
     7
370
    13
100
AcDbLine
 10
40.82854954381301
 20
123.2370551205435
 30
0.0
 11
40.87092421828157
 21
123.702659775375
 31
0.0
  0
LINE
  5
F2
330
1F
100
AcDbEntity
  8
レイヤー 1
 62
     7
370
    13
100
AcDbLine
 10
40.87092421828157
 20
123.702659775375
 30
0.0
 11
40.99787598691304
 21
124.2106391046751
 31
0.0
  0
LINE
  5
F3
330
1F
100
AcDbEntity
  8
レイヤー 1
 62
     7
370
    13
100
AcDbLine
 10
40.99787598691304
 20
124.2106391046751
 30
0.0
 11
41.12482775554449
 21
124.6764160142809
 31
0.0
  0
LINE
  5
F4
330
1F
100
AcDbEntity
  8
レイヤー 1
 62
     7
370
    13
100
AcDbLine
 10
41.12482775554449
 20
124.6764160142809
 30
0.0
 11
41.33652887311308
 21
125.0996459946438
 31
0.0
  0
LINE
  5
F5
330
1F
100
AcDbEntity
  8
レイヤー 1
 62
     7
370
    13
100
AcDbLine
 10
41.33652887311308
 20
125.0996459946438
 30
0.0
 11
41.5482299906817
 21
125.4382988808439
 31
0.0
  0
LINE
  5
F6
330
1F
100
AcDbEntity
  8
レイヤー 1
 62
     7
370
    13
100
AcDbLine
 10
41.5482299906817
 20
125.4382988808439
 30
0.0
 11
41.80230578271886
 21
125.776951767044
 31
0.0
  0
LINE
  5
F7
330
1F
100
AcDbEntity
  8
レイヤー 1
 62
     7
370
    13
100
AcDbLine
 10
41.80230578271886
 20
125.776951767044
 30
0.0
 11
42.09858399445037
 21
125.9886528846126
 31
0.0
  0
LINE
  5
F8
330
1F
100
AcDbEntity
  8
レイヤー 1
 62
     7
370
    13
100
AcDbLine
 10
41.92925755135033
 20
121.1627631288746
 30
0.0
 11
41.92925755135033
 21
121.120388454406
 31
0.0
  0
LINE
  5
F9
330
1F
100
AcDbEntity
  8
レイヤー 1
 62
     7
370
    13
100
AcDbLine
 10
41.92925755135033
 20
121.1627631288746
 30
0.0
 11
42.01383464551321
 21
121.1627631288746
 31
0.0
  0
LINE
  5
FA
330
1F
100
AcDbEntity
  8
レイヤー 1
 62
     7
370
    13
100
AcDbLine
 10
42.01383464551321
 20
121.1627631288746
 30
0.0
 11
42.09858399445037
 21
121.1627631288746
 31
0.0
  0
LINE
  5
FB
330
1F
100
AcDbEntity
  8
レイヤー 1
 62
     7
370
    13
100
AcDbLine
 10
42.09858399445037
 20
121.1627631288746
 30
0.0
 11
42.14095866891893
 21
121.1627631288746
 31
0.0
  0
LINE
  5
FC
330
1F
100
AcDbEntity
  8
レイヤー 1
 62
     7
370
    13
100
AcDbLine
 10
42.14095866891893
 20
121.120388454406
 30
0.0
 11
42.14095866891893
 21
121.1627631288746
 31
0.0
  0
LINE
  5
FD
330
1F
100
AcDbEntity
  8
レイヤー 1
 62
     7
370
    13
100
AcDbLine
 10
42.31028511201896
 20
126.1157769080183
 30
0.0
 11
42.60656332375044
 21
126.1579793277126
 31
0.0
  0
LINE
  5
FE
330
1F
100
AcDbEntity
  8
レイヤー 1
 62
     7
370
    13
100
AcDbLine
 10
42.60656332375044
 20
126.1579793277126
 30
0.0
 11
42.90284153548194
 21
126.1579793277126
 31
0.0
  0
LINE
  5
FF
330
1F
100
AcDbEntity
  8
レイヤー 1
 62
     7
370
    13
100
AcDbLine
 10
42.90284153548194
 20
126.1579793277126
 30
0.0
 11
43.1569173275191
 21
126.0310275590811
 31
0.0
  0
LINE
  5
100
330
1F
100
AcDbEntity
  8
レイヤー 1
 62
     7
370
    13
100
AcDbLine
 10
43.1569173275191
 20
126.0310275590811
 30
0.0
 11
43.36861844508772
 21
125.8193264415125
 31
0.0
  0
LINE
  5
101
330
1F
100
AcDbEntity
  8
レイヤー 1
 62
     7
370
    13
100
AcDbLine
 10
43.36861844508772
 20
125.8193264415125
 30
0.0
 11
43.58031956265631
 21
125.5230482297811
 31
0.0
  0
LINE
  5
102
330
1F
100
AcDbEntity
  8
レイヤー 1
 62
     7
370
    13
100
AcDbLine
 10
43.58031956265631
 20
125.5230482297811
 30
0.0
 11
43.70727133128776
 21
125.184395343581
 31
0.0
  0
LINE
  5
103
330
1F
100
AcDbEntity
  8
レイヤー 1
 62
     7
370
    13
100
AcDbLine
 10
43.70727133128776
 20
125.184395343581
 30
0.0
 11
43.83422309991923
 21
124.7609931084438
 31
0.0
  0
LINE
  5
104
330
1F
100
AcDbEntity
  8
レイヤー 1
 62
     7
370
    13
100
AcDbLine
 10
43.83422309991923
 20
124.7609931084438
 30
0.0
 11
43.87659777438779
 21
124.2953884536123
 31
0.0
  0
LINE
  5
105
330
1F
100
AcDbEntity
  8
レイヤー 1
 62
     7
370
    13
100
AcDbLine
 10
43.87659777438779
 20
124.2953884536123
 30
0.0
 11
43.83422309991923
 21
123.8296115440065
 31
0.0
  0
LINE
  5
106
330
1F
100
AcDbEntity
  8
レイヤー 1
 62
     7
370
    13
100
AcDbLine
 10
43.83422309991923
 20
123.8296115440065
 30
0.0
 11
43.74964600575635
 21
123.3216322147064
 31
0.0
  0
LINE
  5
107
330
1F
100
AcDbEntity
  8
レイヤー 1
 62
     7
370
    13
100
AcDbLine
 10
43.74964600575635
 20
123.3216322147064
 30
0.0
 11
43.6648966568192
 21
122.8560275598749
 31
0.0
  0
LINE
  5
108
330
1F
100
AcDbEntity
  8
レイヤー 1
 62
     7
370
    13
100
AcDbLine
 10
43.6648966568192
 20
122.8560275598749
 30
0.0
 11
43.4531955392506
 21
122.4326253247377
 31
0.0
  0
LINE
  5
109
330
1F
100
AcDbEntity
  8
レイヤー 1
 62
     7
370
    13
100
AcDbLine
 10
43.4531955392506
 20
122.4326253247377
 30
0.0
 11
43.24149442168198
 21
122.0093953443747
 31
0.0
  0
LINE
  5
10A
330
1F
100
AcDbEntity
  8
レイヤー 1
 62
     7
370
    13
100
AcDbLine
 10
43.24149442168198
 20
122.0093953443747
 30
0.0
 11
42.98759088441906
 21
121.6707424581747
 31
0.0
  0
LINE
  5
10B
330
1F
100
AcDbEntity
  8
レイヤー 1
 62
     7
370
    13
100
AcDbLine
 10
42.98759088441906
 20
121.6707424581747
 30
0.0
 11
42.73351509238191
 21
121.4166666661375
 31
0.0
  0
LINE
  5
10C
330
1F
100
AcDbEntity
  8
レイヤー 1
 62
     7
370
    13
100
AcDbLine
 10
42.73351509238191
 20
121.4166666661375
 30
0.0
 11
42.4372368806504
 21
121.2049655485689
 31
0.0
  0
LINE
  5
10D
330
1F
100
AcDbEntity
  8
レイヤー 1
 62
     7
370
    13
100
AcDbLine
 10
42.4372368806504
 20
121.2049655485689
 30
0.0
 11
42.14095866891893
 21
121.120388454406
 31
0.0
  0
LINE
  5
10E
330
1F
100
AcDbEntity
  8
レイヤー 1
 62
     7
370
    13
100
AcDbLine
 10
47.85585531462561
 20
120.3159586586002
 30
0.0
 11
47.8982299890942
 21
120.5276597761688
 31
0.0
  0
POINT
  5
10F
330
1F
100
AcDbEntity
  8
レイヤー 1
 62
     7
370
    13
100
AcDbPoint
 10
48.87198622800005
 20
120.1466322155002
 30
0.0
  0
LINE
  5
110
330
1F
100
AcDbEntity
  8
レイヤー 1
 62
     7
370
    13
100
AcDbLine
 10
48.87198622800005
 20
120.1466322155002
 30
0.0
 11
48.91418864769437
 21
120.1044297958058
 31
0.0
  0
LINE
  5
111
330
1F
100
AcDbEntity
  8
レイヤー 1
 62
     7
370
    13
100
AcDbLine
 10
48.06755643219424
 20
128.9097493465559
 30
0.0
 11
48.02518175772565
 21
128.8249999976188
 31
0.0
  0
LINE
  5
112
330
1F
100
AcDbEntity
  8
レイヤー 1
 62
     7
370
    13
100
AcDbLine
 10
48.06755643219424
 20
128.9097493465559
 30
0.0
 11
48.02518175772565
 21
128.9097493465559
 31
0.0
  0
LINE
  5
113
330
1F
100
AcDbEntity
  8
レイヤー 1
 62
     7
370
    13
100
AcDbLine
 10
48.02518175772565
 20
128.9097493465559
 30
0.0
 11
47.98297933803133
 21
128.9097493465559
 31
0.0
  0
LINE
  5
114
330
1F
100
AcDbEntity
  8
レイヤー 1
 62
     7
370
    13
100
AcDbLine
 10
47.98297933803133
 20
128.9097493465559
 30
0.0
 11
47.98297933803133
 21
128.8673746720874
 31
0.0
  0
LINE
  5
115
330
1F
100
AcDbEntity
  8
レイヤー 1
 62
     7
370
    13
100
AcDbLine
 10
47.98297933803133
 20
128.8673746720874
 30
0.0
 11
47.98297933803133
 21
128.8249999976188
 31
0.0
  0
LINE
  5
116
330
1F
100
AcDbEntity
  8
レイヤー 1
 62
     7
370
    13
100
AcDbLine
 10
37.06082086636951
 20
125.8617011159811
 30
0.0
 11
37.01861844667522
 21
125.8193264415125
 31
0.0
  0
LINE
  5
117
330
1F
100
AcDbEntity
  8
レイヤー 1
 62
     7
370
    13
100
AcDbLine
 10
37.01861844667522
 20
125.8193264415125
 30
0.0
 11
36.97624377220663
 21
125.776951767044
 31
0.0
  0
LINE
  5
118
330
1F
100
AcDbEntity
  8
レイヤー 1
 62
     7
370
    13
100
AcDbLine
 10
41.84450820241318
 20
125.6499999984125
 30
0.0
 11
41.80230578271886
 21
125.6499999984125
 31
0.0
  0
LINE
  5
119
330
1F
100
AcDbEntity
  8
レイヤー 1
 62
     7
370
    13
100
AcDbLine
 10
48.06755643219424
 20
128.9097493465559
 30
0.0
 11
48.15230578113136
 21
128.8673746720874
 31
0.0
  0
LINE
  5
11A
330
1F
100
AcDbEntity
  8
レイヤー 1
 62
     7
370
    13
100
AcDbLine
 10
42.31028511201896
 20
126.1157769080183
 30
0.0
 11
42.39486220618184
 21
126.0734022335497
 31
0.0
  0
LINE
  5
11B
330
1F
100
AcDbEntity
  8
レイヤー 1
 62
     7
370
    13
100
AcDbLine
 10
42.39486220618184
 20
126.0734022335497
 30
0.0
 11
42.69131267268759
 21
126.1579793277126
 31
0.0
  0
LINE
  5
11C
330
1F
100
AcDbEntity
  8
レイヤー 1
 62
     7
370
    13
100
AcDbLine
 10
42.69131267268759
 20
126.1579793277126
 30
0.0
 11
42.90284153548194
 21
126.1579793277126
 31
0.0
  0
LINE
  5
11D
330
1F
100
AcDbEntity
  8
レイヤー 1
 62
     7
370
    13
100
AcDbLine
 10
43.32624377061913
 20
125.9040757904497
 30
0.0
 11
43.28386909615057
 21
125.946278210144
 31
0.0
  0
LINE
  5
11E
330
1F
100
AcDbEntity
  8
レイヤー 1
 62
     7
370
    13
100
AcDbLine
 10
43.28386909615057
 20
125.946278210144
 30
0.0
 11
43.19929200198769
 21
125.9886528846126
 31
0.0
  0
LINE
  5
11F
330
1F
100
AcDbEntity
  8
レイヤー 1
 62
     7
370
    13
100
AcDbLine
 10
43.19929200198769
 20
125.9886528846126
 30
0.0
 11
43.11454265305053
 21
126.0310275590811
 31
0.0
  0
LINE
  5
120
330
1F
100
AcDbEntity
  8
レイヤー 1
 62
     7
370
    13
100
AcDbLine
 10
43.11454265305053
 20
126.0310275590811
 30
0.0
 11
43.02996555888765
 21
126.0734022335497
 31
0.0
  0
LINE
  5
121
330
1F
100
AcDbEntity
  8
レイヤー 1
 62
     7
370
    13
100
AcDbLine
 10
43.02996555888765
 20
126.0734022335497
 30
0.0
 11
42.9452162099505
 21
126.0734022335497
 31
0.0
  0
LINE
  5
122
330
1F
100
AcDbEntity
  8
レイヤー 1
 62
     7
370
    13
100
AcDbLine
 10
42.9452162099505
 20
126.0734022335497
 30
0.0
 11
42.86063911578762
 21
126.1157769080183
 31
0.0
  0
LINE
  5
123
330
1F
100
AcDbEntity
  8
レイヤー 1
 62
     7
370
    13
100
AcDbLine
 10
42.86063911578762
 20
126.1157769080183
 30
0.0
 11
42.77588976685047
 21
126.1157769080183
 31
0.0
  0
LINE
  5
124
330
1F
100
AcDbEntity
  8
レイヤー 1
 62
     7
370
    13
100
AcDbLine
 10
42.77588976685047
 20
126.1157769080183
 30
0.0
 11
42.69131267268759
 21
126.1157769080183
 31
0.0
  0
LINE
  5
125
330
1F
100
AcDbEntity
  8
レイヤー 1
 62
     7
370
    13
100
AcDbLine
 10
42.69131267268759
 20
126.1157769080183
 30
0.0
 11
42.56418864928187
 21
126.1157769080183
 31
0.0
  0
LINE
  5
126
330
1F
100
AcDbEntity
  8
レイヤー 1
 62
     7
370
    13
100
AcDbLine
 10
42.56418864928187
 20
126.1157769080183
 30
0.0
 11
42.47961155511899
 21
126.0734022335497
 31
0.0
  0
LINE
  5
127
330
1F
100
AcDbEntity
  8
レイヤー 1
 62
     7
370
    13
100
AcDbLine
 10
42.47961155511899
 20
126.0734022335497
 30
0.0
 11
42.39486220618184
 21
126.0310275590811
 31
0.0
  0
LINE
  5
128
330
1F
100
AcDbEntity
  8
レイヤー 1
 62
     7
370
    13
100
AcDbLine
 10
42.39486220618184
 20
121.2049655485689
 30
0.0
 11
42.22553576308181
 21
121.1627631288746
 31
0.0
  0
LINE
  5
129
330
1F
100
AcDbEntity
  8
レイヤー 1
 62
     7
370
    13
100
AcDbLine
 10
41.92925755135033
 20
121.1627631288746
 30
0.0
 11
41.7599311082503
 21
121.2473402230375
 31
0.0
  0
LINE
  5
12A
330
1F
100
AcDbEntity
  8
レイヤー 1
 62
     7
370
    13
100
AcDbLine
 10
41.7599311082503
 20
121.2473402230375
 30
0.0
 11
41.50585531621311
 21
121.3742919916689
 31
0.0
  0
LINE
  5
12B
330
1F
100
AcDbEntity
  8
レイヤー 1
 62
     7
370
    13
100
AcDbLine
 10
41.50585531621311
 20
121.3742919916689
 30
0.0
 11
41.29415419864452
 21
121.6283677837061
 31
0.0
  0
LINE
  5
12C
330
1F
100
AcDbEntity
  8
レイヤー 1
 62
     7
370
    13
100
AcDbLine
 10
41.29415419864452
 20
121.6283677837061
 30
0.0
 11
41.16720243001305
 21
121.9670206699062
 31
0.0
  0
LINE
  5
12D
330
1F
100
AcDbEntity
  8
レイヤー 1
 62
     7
370
    13
100
AcDbLine
 10
41.16720243001305
 20
121.9670206699062
 30
0.0
 11
41.04025066138161
 21
122.3480482305748
 31
0.0
  0
LINE
  5
12E
330
1F
100
AcDbEntity
  8
レイヤー 1
 62
     7
370
    13
100
AcDbLine
 10
41.04025066138161
 20
122.3480482305748
 30
0.0
 11
40.95550131244445
 21
122.7712782109378
 31
0.0
  0
LINE
  5
12F
330
1F
100
AcDbEntity
  8
レイヤー 1
 62
     7
370
    13
100
AcDbLine
 10
40.95550131244445
 20
122.7712782109378
 30
0.0
 11
40.95550131244445
 21
123.2370551205435
 31
0.0
  0
LINE
  5
130
330
1F
100
AcDbEntity
  8
レイヤー 1
 62
     7
370
    13
100
AcDbLine
 10
40.95550131244445
 20
123.2370551205435
 30
0.0
 11
40.99787598691304
 21
123.702659775375
 31
0.0
  0
LINE
  5
131
330
1F
100
AcDbEntity
  8
レイヤー 1
 62
     7
370
    13
100
AcDbLine
 10
40.99787598691304
 20
123.702659775375
 30
0.0
 11
41.08262533585017
 21
124.1682644302065
 31
0.0
  0
LINE
  5
132
330
1F
100
AcDbEntity
  8
レイヤー 1
 62
     7
370
    13
100
AcDbLine
 10
41.08262533585017
 20
124.1682644302065
 30
0.0
 11
41.2519517789502
 21
124.6340413398123
 31
0.0
  0
LINE
  5
133
330
1F
100
AcDbEntity
  8
レイヤー 1
 62
     7
370
    13
100
AcDbLine
 10
41.2519517789502
 20
124.6340413398123
 30
0.0
 11
41.42127822205023
 21
125.015068900481
 31
0.0
  0
LINE
  5
134
330
1F
100
AcDbEntity
  8
レイヤー 1
 62
     7
370
    13
100
AcDbLine
 10
41.42127822205023
 20
125.015068900481
 30
0.0
 11
41.67518175931315
 21
125.3960964611496
 31
0.0
  0
LINE
  5
135
330
1F
100
AcDbEntity
  8
レイヤー 1
 62
     7
370
    13
100
AcDbLine
 10
41.67518175931315
 20
125.3960964611496
 30
0.0
 11
41.92925755135033
 21
125.6923746728811
 31
0.0
  0
LINE
  5
136
330
1F
100
AcDbEntity
  8
レイヤー 1
 62
     7
370
    13
100
AcDbLine
 10
41.92925755135033
 20
125.6923746728811
 30
0.0
 11
42.18316108861325
 21
125.9040757904497
 31
0.0
  0
LINE
  5
137
330
1F
100
AcDbEntity
  8
レイヤー 1
 62
     7
370
    13
100
AcDbLine
 10
42.39486220618184
 20
126.0310275590811
 30
0.0
 11
42.31028511201896
 21
125.9886528846126
 31
0.0
  0
LINE
  5
138
330
1F
100
AcDbEntity
  8
レイヤー 1
 62
     7
370
    13
100
AcDbLine
 10
42.31028511201896
 20
125.9886528846126
 30
0.0
 11
42.2679104375504
 21
125.946278210144
 31
0.0
  0
LINE
  5
139
330
1F
100
AcDbEntity
  8
レイヤー 1
 62
     7
370
    13
100
AcDbLine
 10
42.2679104375504
 20
125.946278210144
 30
0.0
 11
42.18316108861325
 21
125.9040757904497
 31
0.0
  0
LINE
  5
13A
330
1F
100
AcDbEntity
  8
レイヤー 1
 62
     7
370
    13
100
AcDbLine
 10
42.98759088441906
 20
126.0734022335497
 30
0.0
 11
43.07216797858197
 21
126.0734022335497
 31
0.0
  0
LINE
  5
13B
330
1F
100
AcDbEntity
  8
レイヤー 1
 62
     7
370
    13
100
AcDbLine
 10
43.07216797858197
 20
126.0734022335497
 30
0.0
 11
43.1569173275191
 21
126.0310275590811
 31
0.0
  0
LINE
  5
13C
330
1F
100
AcDbEntity
  8
レイヤー 1
 62
     7
370
    13
100
AcDbLine
 10
42.2679104375504
 20
121.1627631288746
 30
0.0
 11
42.22553576308181
 21
121.1627631288746
 31
0.0
  0
LINE
  5
13D
330
1F
100
AcDbEntity
  8
レイヤー 1
 62
     7
370
    13
100
AcDbLine
 10
42.22553576308181
 20
121.1627631288746
 30
0.0
 11
42.14095866891893
 21
121.1627631288746
 31
0.0
  0
LINE
  5
13E
330
1F
100
AcDbEntity
  8
レイヤー 1
 62
     7
370
    13
100
AcDbLine
 10
41.88688287688174
 20
121.120388454406
 30
0.0
 11
41.7599311082503
 21
121.1627631288746
 31
0.0
  0
LINE
  5
13F
330
1F
100
AcDbEntity
  8
レイヤー 1
 62
     7
370
    13
100
AcDbLine
 10
41.7599311082503
 20
121.1627631288746
 30
0.0
 11
41.50585531621311
 21
121.3319173172004
 31
0.0
  0
LINE
  5
140
330
1F
100
AcDbEntity
  8
レイヤー 1
 62
     7
370
    13
100
AcDbLine
 10
41.50585531621311
 20
121.3319173172004
 30
0.0
 11
41.29415419864452
 21
121.5859931092375
 31
0.0
  0
LINE
  5
141
330
1F
100
AcDbEntity
  8
レイヤー 1
 62
     7
370
    13
100
AcDbLine
 10
41.29415419864452
 20
121.5859931092375
 30
0.0
 11
41.12482775554449
 21
121.9246459954376
 31
0.0
  0
LINE
  5
142
330
1F
100
AcDbEntity
  8
レイヤー 1
 62
     7
370
    13
100
AcDbLine
 10
41.12482775554449
 20
121.9246459954376
 30
0.0
 11
40.99787598691304
 21
122.3056735561062
 31
0.0
  0
LINE
  5
143
330
1F
100
AcDbEntity
  8
レイヤー 1
 62
     7
370
    13
100
AcDbLine
 10
40.99787598691304
 20
122.3056735561062
 30
0.0
 11
40.95550131244445
 21
122.7290757912434
 31
0.0
  0
LINE
  5
144
330
1F
100
AcDbEntity
  8
レイヤー 1
 62
     7
370
    13
100
AcDbLine
 10
40.95550131244445
 20
122.7290757912434
 30
0.0
 11
40.91329889275016
 21
123.1946804460749
 31
0.0
  0
LINE
  5
145
330
1F
100
AcDbEntity
  8
レイヤー 1
 62
     7
370
    13
100
AcDbLine
 10
40.91329889275016
 20
123.1946804460749
 30
0.0
 11
40.95550131244445
 21
123.702659775375
 31
0.0
  0
LINE
  5
146
330
1F
100
AcDbEntity
  8
レイヤー 1
 62
     7
370
    13
100
AcDbLine
 10
40.95550131244445
 20
123.702659775375
 30
0.0
 11
41.08262533585017
 21
124.1682644302065
 31
0.0
  0
LINE
  5
147
330
1F
100
AcDbEntity
  8
レイヤー 1
 62
     7
370
    13
100
AcDbLine
 10
41.08262533585017
 20
124.1682644302065
 30
0.0
 11
41.20957710448164
 21
124.6340413398123
 31
0.0
  0
LINE
  5
148
330
1F
100
AcDbEntity
  8
レイヤー 1
 62
     7
370
    13
100
AcDbLine
 10
41.20957710448164
 20
124.6340413398123
 30
0.0
 11
41.42127822205023
 21
125.0574435749495
 31
0.0
  0
LINE
  5
149
330
1F
100
AcDbEntity
  8
レイヤー 1
 62
     7
370
    13
100
AcDbLine
 10
41.42127822205023
 20
125.0574435749495
 30
0.0
 11
41.63297933961883
 21
125.4382988808439
 31
0.0
  0
LINE
  5
14A
330
1F
100
AcDbEntity
  8
レイヤー 1
 62
     7
370
    13
100
AcDbLine
 10
41.63297933961883
 20
125.4382988808439
 30
0.0
 11
41.88688287688174
 21
125.7347493473496
 31
0.0
  0
LINE
  5
14B
330
1F
100
AcDbEntity
  8
レイヤー 1
 62
     7
370
    13
100
AcDbLine
 10
41.88688287688174
 20
125.7347493473496
 30
0.0
 11
42.14095866891893
 21
125.946278210144
 31
0.0
  0
LINE
  5
14C
330
1F
100
AcDbEntity
  8
レイヤー 1
 62
     7
370
    13
100
AcDbLine
 10
42.39486220618184
 20
126.0310275590811
 30
0.0
 11
42.31028511201896
 21
126.0734022335497
 31
0.0
  0
LINE
  5
14D
330
1F
100
AcDbEntity
  8
レイヤー 1
 62
     7
370
    13
100
AcDbLine
 10
42.18316108861325
 20
125.9040757904497
 30
0.0
 11
42.09858399445037
 21
125.946278210144
 31
0.0
  0
LINE
  5
14E
330
1F
100
AcDbEntity
  8
レイヤー 1
 62
     7
370
    13
100
AcDbLine
 10
42.52198622958755
 20
126.0734022335497
 30
0.0
 11
42.39486220618184
 21
126.0734022335497
 31
0.0
  0
POINT
  5
14F
330
1F
100
AcDbEntity
  8
レイヤー 1
 62
     7
370
    13
100
AcDbPoint
 10
36.84929200357519
 20
125.6923746728811
 30
0.0
  0
SPLINE
  5
150
330
1F
100
AcDbEntity
  8
レイヤー 1
 62
     7
370
    13
100
AcDbSpline
210
0.0
220
0.0
230
1.0
 70
    27
 71
     3
 72
    14
 73
    10
 74
     0
 42
0.0000000001
 43
0.0000000001
 40
0.0
 40
0.0
 40
0.0
 40
0.0
 40
1.0
 40
1.0
 40
1.0
 40
2.0
 40
2.0
 40
2.0
 40
3.0
 40
3.0
 40
3.0
 40
3.0
 10
36.595216211538
 20
117.479611545594
 30
0.0
 10
36.595216211538
 20
117.479611545594
 30
0.0
 10
36.595216211538
 20
117.479611545594
 30
0.0
 10
36.595216211538
 20
117.479611545594
 30
0.0
 10
36.595216211538
 20
117.479611545594
 30
0.0
 10
36.55284153706944
 20
117.479611545594
 30
0.0
 10
36.55284153706944
 20
117.479611545594
 30
0.0
 10
36.55284153706944
 20
117.479611545594
 30
0.0
 10
36.595216211538
 20
117.479611545594
 30
0.0
 10
36.595216211538
 20
117.479611545594
 30
0.0
  0
LINE
  5
151
330
1F
100
AcDbEntity
  8
レイヤー 1
 62
     7
370
    13
100
AcDbLine
 10
48.19450820082568
 20
128.9519517662502
 30
0.0
 11
48.19450820082568
 21
128.9943264407188
 31
0.0
  0
LINE
  5
152
330
1F
100
AcDbEntity
  8
レイヤー 1
 62
     7
370
    13
100
AcDbLine
 10
48.19450820082568
 20
128.9943264407188
 30
0.0
 11
48.19450820082568
 21
129.0367011151873
 31
0.0
  0
LINE
  5
153
330
1F
100
AcDbEntity
  8
レイヤー 1
 62
     7
370
    13
100
AcDbLine
 10
48.19450820082568
 20
129.0367011151873
 30
0.0
 11
48.19450820082568
 21
129.0790757896559
 31
0.0
  0
LINE
  5
154
330
1F
100
AcDbEntity
  8
レイヤー 1
 62
     7
370
    13
100
AcDbLine
 10
48.19450820082568
 20
129.0790757896559
 30
0.0
 11
48.15230578113136
 21
129.0790757896559
 31
0.0
  0
LINE
  5
155
330
1F
100
AcDbEntity
  8
レイヤー 1
 62
     7
370
    13
100
AcDbLine
 10
48.19450820082568
 20
128.9519517662502
 30
0.0
 11
47.94060466356277
 21
120.6969862192688
 31
0.0
  0
LINE
  5
156
330
1F
100
AcDbEntity
  8
レイヤー 1
 62
     7
370
    13
100
AcDbLine
 10
47.94060466356277
 20
120.6969862192688
 30
0.0
 11
47.94060466356277
 21
120.6546115448002
 31
0.0
  0
LINE
  5
157
330
1F
100
AcDbEntity
  8
レイヤー 1
 62
     7
370
    13
100
AcDbLine
 10
47.94060466356277
 20
120.6546115448002
 30
0.0
 11
47.94060466356277
 21
120.6124091251059
 31
0.0
  0
LINE
  5
158
330
1F
100
AcDbEntity
  8
レイヤー 1
 62
     7
370
    13
100
AcDbLine
 10
47.94060466356277
 20
120.6124091251059
 30
0.0
 11
47.94060466356277
 21
120.5700344506374
 31
0.0
  0
LINE
  5
159
330
1F
100
AcDbEntity
  8
レイヤー 1
 62
     7
370
    13
100
AcDbLine
 10
47.94060466356277
 20
120.5700344506374
 30
0.0
 11
47.94060466356277
 21
120.5276597761688
 31
0.0
  0
LINE
  5
15A
330
1F
100
AcDbEntity
  8
レイヤー 1
 62
     7
370
    13
100
AcDbLine
 10
47.94060466356277
 20
120.5276597761688
 30
0.0
 11
47.98297933803133
 21
120.5276597761688
 31
0.0
  0
LINE
  5
15B
330
1F
100
AcDbEntity
  8
レイヤー 1
 62
     7
370
    13
100
AcDbLine
 10
47.98297933803133
 20
120.5276597761688
 30
0.0
 11
48.02518175772565
 21
120.4852851017002
 31
0.0
  0
LINE
  5
15C
330
1F
100
AcDbEntity
  8
レイヤー 1
 62
     7
370
    13
100
AcDbLine
 10
48.02518175772565
 20
120.4852851017002
 30
0.0
 11
48.06755643219424
 21
120.4852851017002
 31
0.0
  0
LINE
  5
15D
330
1F
100
AcDbEntity
  8
レイヤー 1
 62
     7
370
    13
100
AcDbLine
 10
48.06755643219424
 20
120.4852851017002
 30
0.0
 11
49.5069173259316
 21
120.9086873368374
 31
0.0
  0
LINE
  5
15E
330
1F
100
AcDbEntity
  8
レイヤー 1
 62
     7
370
    13
100
AcDbLine
 10
49.67624376903163
 20
120.7817355682059
 30
0.0
 11
49.63386909456307
 21
120.8241102426745
 31
0.0
  0
LINE
  5
15F
330
1F
100
AcDbEntity
  8
レイヤー 1
 62
     7
370
    13
100
AcDbLine
 10
49.63386909456307
 20
120.8241102426745
 30
0.0
 11
49.63386909456307
 21
120.8663126623688
 31
0.0
  0
LINE
  5
160
330
1F
100
AcDbEntity
  8
レイヤー 1
 62
     7
370
    13
100
AcDbLine
 10
49.63386909456307
 20
120.8663126623688
 30
0.0
 11
49.59149442009448
 21
120.8663126623688
 31
0.0
  0
LINE
  5
161
330
1F
100
AcDbEntity
  8
レイヤー 1
 62
     7
370
    13
100
AcDbLine
 10
49.59149442009448
 20
120.8663126623688
 30
0.0
 11
49.54929200040019
 21
120.9086873368374
 31
0.0
  0
LINE
  5
162
330
1F
100
AcDbEntity
  8
レイヤー 1
 62
     7
370
    13
100
AcDbLine
 10
49.54929200040019
 20
120.9086873368374
 30
0.0
 11
49.5069173259316
 21
120.9086873368374
 31
0.0
  0
LINE
  5
163
330
1F
100
AcDbEntity
  8
レイヤー 1
 62
     7
370
    13
100
AcDbLine
 10
49.67624376903163
 20
120.7817355682059
 30
0.0
 11
52.47021620756925
 21
114.6856391070564
 31
0.0
  0
LINE
  5
164
330
1F
100
AcDbEntity
  8
レイヤー 1
 62
     7
370
    13
100
AcDbLine
 10
52.47021620756925
 20
114.6856391070564
 30
0.0
 11
52.51259088203784
 21
114.6432644325878
 31
0.0
  0
LINE
  5
165
330
1F
100
AcDbEntity
  8
レイヤー 1
 62
     7
370
    13
100
AcDbLine
 10
52.51259088203784
 20
114.6432644325878
 30
0.0
 11
52.5549655565064
 21
114.6432644325878
 31
0.0
  0
LINE
  5
166
330
1F
100
AcDbEntity
  8
レイヤー 1
 62
     7
370
    13
100
AcDbLine
 10
52.5549655565064
 20
114.6432644325878
 30
0.0
 11
52.59716797620072
 21
114.6010620128935
 31
0.0
  0
LINE
  5
167
330
1F
100
AcDbEntity
  8
レイヤー 1
 62
     7
370
    13
100
AcDbLine
 10
52.59716797620072
 20
114.6010620128935
 30
0.0
 11
52.59716797620072
 21
114.6432644325878
 31
0.0
  0
LINE
  5
168
330
1F
100
AcDbEntity
  8
レイヤー 1
 62
     7
370
    13
100
AcDbLine
 10
52.59716797620072
 20
114.6432644325878
 30
0.0
 11
52.63954265066928
 21
114.6432644325878
 31
0.0
  0
LINE
  5
169
330
1F
100
AcDbEntity
  8
レイヤー 1
 62
     7
370
    13
100
AcDbLine
 10
52.63954265066928
 20
114.6432644325878
 30
0.0
 11
52.68191732513785
 21
114.6856391070564
 31
0.0
  0
LINE
  5
16A
330
1F
100
AcDbEntity
  8
レイヤー 1
 62
     7
370
    13
100
AcDbLine
 10
52.68191732513785
 20
114.6856391070564
 30
0.0
 11
53.86720242683808
 21
115.9132988832252
 31
0.0
  0
POINT
  5
16B
330
1F
100
AcDbEntity
  8
レイヤー 1
 62
     7
370
    13
100
AcDbPoint
 10
53.86720242683808
 20
115.9132988832252
 30
0.0
  0
LINE
  5
16C
330
1F
100
AcDbEntity
  8
レイヤー 1
 62
     7
370
    13
100
AcDbLine
 10
53.86720242683808
 20
115.9132988832252
 30
0.0
 11
53.86720242683808
 21
115.9556735576937
 31
0.0
  0
LINE
  5
16D
330
1F
100
AcDbEntity
  8
レイヤー 1
 62
     7
370
    13
100
AcDbLine
 10
53.86720242683808
 20
115.9556735576937
 30
0.0
 11
53.82482775236949
 21
115.9556735576937
 31
0.0
  0
LINE
  5
16E
330
1F
100
AcDbEntity
  8
レイヤー 1
 62
     7
370
    13
100
AcDbLine
 10
53.82482775236949
 20
115.9556735576937
 30
0.0
 11
53.0629448858065
 21
115.1090413421936
 31
0.0
  0
LINE
  5
16F
330
1F
100
AcDbEntity
  8
レイヤー 1
 62
     7
370
    13
100
AcDbLine
 10
53.0629448858065
 20
115.1090413421936
 30
0.0
 11
53.0629448858065
 21
115.1936184363565
 31
0.0
  0
LINE
  5
170
330
1F
100
AcDbEntity
  8
レイヤー 1
 62
     7
370
    13
100
AcDbLine
 10
53.0629448858065
 20
115.1936184363565
 30
0.0
 11
53.82482775236949
 21
116.0402506518566
 31
0.0
  0
LINE
  5
171
330
1F
100
AcDbEntity
  8
レイヤー 1
 62
     7
370
    13
100
AcDbLine
 10
53.82482775236949
 20
116.0402506518566
 30
0.0
 11
53.86720242683808
 21
116.0402506518566
 31
0.0
  0
LINE
  5
172
330
1F
100
AcDbEntity
  8
レイヤー 1
 62
     7
370
    13
100
AcDbLine
 10
53.86720242683808
 20
116.0402506518566
 30
0.0
 11
53.90957710130664
 21
116.0402506518566
 31
0.0
  0
LINE
  5
173
330
1F
100
AcDbEntity
  8
レイヤー 1
 62
     7
370
    13
100
AcDbLine
 10
53.90957710130664
 20
116.0402506518566
 30
0.0
 11
53.90957710130664
 21
115.9980482321623
 31
0.0
  0
LINE
  5
174
330
1F
100
AcDbEntity
  8
レイヤー 1
 62
     7
370
    13
100
AcDbLine
 10
53.90957710130664
 20
115.9980482321623
 30
0.0
 11
53.90957710130664
 21
115.9556735576937
 31
0.0
  0
LINE
  5
175
330
1F
100
AcDbEntity
  8
レイヤー 1
 62
     7
370
    13
100
AcDbLine
 10
53.90957710130664
 20
115.9556735576937
 30
0.0
 11
53.90957710130664
 21
115.9132988832252
 31
0.0
  0
LINE
  5
176
330
1F
100
AcDbEntity
  8
レイヤー 1
 62
     7
370
    13
100
AcDbLine
 10
53.90957710130664
 20
115.9132988832252
 30
0.0
 11
53.90957710130664
 21
115.8710964635308
 31
0.0
  0
LINE
  5
177
330
1F
100
AcDbEntity
  8
レイヤー 1
 62
     7
370
    13
100
AcDbLine
 10
53.90957710130664
 20
115.8710964635308
 30
0.0
 11
53.86720242683808
 21
115.8287217890623
 31
0.0
  0
LINE
  5
178
330
1F
100
AcDbEntity
  8
レイヤー 1
 62
     7
370
    13
100
AcDbLine
 10
53.86720242683808
 20
115.8287217890623
 30
0.0
 11
52.68191732513785
 21
114.6010620128935
 31
0.0
  0
POINT
  5
179
330
1F
100
AcDbEntity
  8
レイヤー 1
 62
     7
370
    13
100
AcDbPoint
 10
52.42784153310069
 20
114.6010620128935
 30
0.0
  0
LINE
  5
17A
330
1F
100
AcDbEntity
  8
レイヤー 1
 62
     7
370
    13
100
AcDbLine
 10
52.42784153310069
 20
114.6010620128935
 30
0.0
 11
52.47021620756925
 21
114.5586873384249
 31
0.0
  0
LINE
  5
17B
330
1F
100
AcDbEntity
  8
レイヤー 1
 62
     7
370
    13
100
AcDbLine
 10
52.47021620756925
 20
114.5586873384249
 30
0.0
 11
52.51259088203784
 21
114.5163126639563
 31
0.0
  0
LINE
  5
17C
330
1F
100
AcDbEntity
  8
レイヤー 1
 62
     7
370
    13
100
AcDbLine
 10
52.51259088203784
 20
114.5163126639563
 30
0.0
 11
52.5549655565064
 21
114.5163126639563
 31
0.0
  0
LINE
  5
17D
330
1F
100
AcDbEntity
  8
レイヤー 1
 62
     7
370
    13
100
AcDbLine
 10
52.5549655565064
 20
114.5163126639563
 30
0.0
 11
52.59716797620072
 21
114.5163126639563
 31
0.0
  0
LINE
  5
17E
330
1F
100
AcDbEntity
  8
レイヤー 1
 62
     7
370
    13
100
AcDbLine
 10
52.59716797620072
 20
114.5163126639563
 30
0.0
 11
52.63954265066928
 21
114.5163126639563
 31
0.0
  0
LINE
  5
17F
330
1F
100
AcDbEntity
  8
レイヤー 1
 62
     7
370
    13
100
AcDbLine
 10
52.63954265066928
 20
114.5163126639563
 30
0.0
 11
52.68191732513785
 21
114.5586873384249
 31
0.0
  0
LINE
  5
180
330
1F
100
AcDbEntity
  8
レイヤー 1
 62
     7
370
    13
100
AcDbLine
 10
52.68191732513785
 20
114.5586873384249
 30
0.0
 11
52.68191732513785
 21
114.6010620128935
 31
0.0
  0
LINE
  5
181
330
1F
100
AcDbEntity
  8
レイヤー 1
 62
     7
370
    13
100
AcDbLine
 10
52.42784153310069
 20
114.6010620128935
 30
0.0
 11
49.59149442009448
 21
120.7393608937374
 31
0.0
  0
POINT
  5
182
330
1F
100
AcDbEntity
  8
レイヤー 1
 62
     7
370
    13
100
AcDbPoint
 10
49.59149442009448
 20
120.7393608937374
 30
0.0
  0
LINE
  5
183
330
1F
100
AcDbEntity
  8
レイヤー 1
 62
     7
370
    13
100
AcDbLine
 10
49.59149442009448
 20
120.7393608937374
 30
0.0
 11
49.59149442009448
 21
120.7817355682059
 31
0.0
  0
LINE
  5
184
330
1F
100
AcDbEntity
  8
レイヤー 1
 62
     7
370
    13
100
AcDbLine
 10
49.59149442009448
 20
120.7817355682059
 30
0.0
 11
49.54929200040019
 21
120.7817355682059
 31
0.0
  0
LINE
  5
185
330
1F
100
AcDbEntity
  8
レイヤー 1
 62
     7
370
    13
100
AcDbLine
 10
49.54929200040019
 20
120.7817355682059
 30
0.0
 11
49.5069173259316
 21
120.7817355682059
 31
0.0
  0
LINE
  5
186
330
1F
100
AcDbEntity
  8
レイヤー 1
 62
     7
370
    13
100
AcDbLine
 10
49.5069173259316
 20
120.7817355682059
 30
0.0
 11
48.06755643219424
 21
120.4007080075373
 31
0.0
  0
LINE
  5
187
330
1F
100
AcDbEntity
  8
レイヤー 1
 62
     7
370
    13
100
AcDbLine
 10
48.06755643219424
 20
120.4007080075373
 30
0.0
 11
48.02518175772565
 21
120.4007080075373
 31
0.0
  0
LINE
  5
188
330
1F
100
AcDbEntity
  8
レイヤー 1
 62
     7
370
    13
100
AcDbLine
 10
48.02518175772565
 20
120.4007080075373
 30
0.0
 11
47.98297933803133
 21
120.4007080075373
 31
0.0
  0
LINE
  5
189
330
1F
100
AcDbEntity
  8
レイヤー 1
 62
     7
370
    13
100
AcDbLine
 10
47.98297933803133
 20
120.4007080075373
 30
0.0
 11
47.94060466356277
 21
120.4007080075373
 31
0.0
  0
LINE
  5
18A
330
1F
100
AcDbEntity
  8
レイヤー 1
 62
     7
370
    13
100
AcDbLine
 10
47.94060466356277
 20
120.4007080075373
 30
0.0
 11
47.8982299890942
 21
120.4430826820059
 31
0.0
  0
LINE
  5
18B
330
1F
100
AcDbEntity
  8
レイヤー 1
 62
     7
370
    13
100
AcDbLine
 10
47.8982299890942
 20
120.4430826820059
 30
0.0
 11
47.8982299890942
 21
120.4852851017002
 31
0.0
  0
LINE
  5
18C
330
1F
100
AcDbEntity
  8
レイヤー 1
 62
     7
370
    13
100
AcDbLine
 10
47.8982299890942
 20
120.4852851017002
 30
0.0
 11
47.85585531462561
 21
120.5700344506374
 31
0.0
  0
LINE
  5
18D
330
1F
100
AcDbEntity
  8
レイヤー 1
 62
     7
370
    13
100
AcDbLine
 10
47.85585531462561
 20
120.5700344506374
 30
0.0
 11
47.85585531462561
 21
120.6124091251059
 31
0.0
  0
LINE
  5
18E
330
1F
100
AcDbEntity
  8
レイヤー 1
 62
     7
370
    13
100
AcDbLine
 10
47.85585531462561
 20
120.6124091251059
 30
0.0
 11
47.85585531462561
 21
120.6969862192688
 31
0.0
  0
LINE
  5
18F
330
1F
100
AcDbEntity
  8
レイヤー 1
 62
     7
370
    13
100
AcDbLine
 10
47.85585531462561
 20
120.6969862192688
 30
0.0
 11
48.15230578113136
 21
128.9943264407188
 31
0.0
  0
LINE
  5
190
330
1F
100
AcDbEntity
  8
レイヤー 1
 62
     7
370
    13
100
AcDbLine
 10
48.15230578113136
 20
128.9943264407188
 30
0.0
 11
36.8069173291066
 21
125.8193264415125
 31
0.0
  0
LINE
  5
191
330
1F
100
AcDbEntity
  8
レイヤー 1
 62
     7
370
    13
100
AcDbLine
 10
36.8069173291066
 20
125.8193264415125
 30
0.0
 11
36.51063911737512
 21
117.5219862200626
 31
0.0
  0
LINE
  5
192
330
1F
100
AcDbEntity
  8
レイヤー 1
 62
     7
370
    13
100
AcDbLine
 10
36.29893799980653
 20
117.0985839849254
 30
0.0
 11
36.34131267427509
 21
117.1409586593939
 31
0.0
  0
LINE
  5
193
330
1F
100
AcDbEntity
  8
レイヤー 1
 62
     7
370
    13
100
AcDbLine
 10
36.34131267427509
 20
117.1409586593939
 30
0.0
 11
36.38351509396941
 21
117.1833333338625
 31
0.0
  0
LINE
  5
194
330
1F
100
AcDbEntity
  8
レイヤー 1
 62
     7
370
    13
100
AcDbLine
 10
36.38351509396941
 20
117.1833333338625
 30
0.0
 11
36.42588976843797
 21
117.2257080083311
 31
0.0
  0
LINE
  5
195
330
1F
100
AcDbEntity
  8
レイヤー 1
 62
     7
370
    13
100
AcDbLine
 10
36.42588976843797
 20
117.2257080083311
 30
0.0
 11
36.46826444290656
 21
117.2680826827997
 31
0.0
  0
LINE
  5
196
330
1F
100
AcDbEntity
  8
レイヤー 1
 62
     7
370
    13
100
AcDbLine
 10
36.46826444290656
 20
117.2680826827997
 30
0.0
 11
36.51063911737512
 21
117.3526597769625
 31
0.0
  0
LINE
  5
197
330
1F
100
AcDbEntity
  8
レイヤー 1
 62
     7
370
    13
100
AcDbLine
 10
36.51063911737512
 20
117.3526597769625
 30
0.0
 11
36.51063911737512
 21
117.3950344514311
 31
0.0
  0
LINE
  5
198
330
1F
100
AcDbEntity
  8
レイヤー 1
 62
     7
370
    13
100
AcDbLine
 10
36.51063911737512
 20
117.3950344514311
 30
0.0
 11
36.51063911737512
 21
117.479611545594
 31
0.0
  0
LINE
  5
199
330
1F
100
AcDbEntity
  8
レイヤー 1
 62
     7
370
    13
100
AcDbLine
 10
36.51063911737512
 20
117.479611545594
 30
0.0
 11
36.51063911737512
 21
117.5219862200626
 31
0.0
  0
LINE
  5
19A
330
1F
100
AcDbEntity
  8
レイヤー 1
 62
     7
370
    13
100
AcDbLine
 10
36.29893799980653
 20
117.0985839849254
 30
0.0
 11
34.85957710606914
 21
116.717728679031
 31
0.0
  0
LINE
  5
19B
330
1F
100
AcDbEntity
  8
レイヤー 1
 62
     7
370
    13
100
AcDbLine
 10
34.85957710606914
 20
116.717728679031
 30
0.0
 11
34.81720243160055
 21
116.6753540045624
 31
0.0
  0
LINE
  5
19C
330
1F
100
AcDbEntity
  8
レイヤー 1
 62
     7
370
    13
100
AcDbLine
 10
34.81720243160055
 20
116.6753540045624
 30
0.0
 11
34.77482775713199
 21
116.6753540045624
 31
0.0
  0
LINE
  5
19D
330
1F
100
AcDbEntity
  8
レイヤー 1
 62
     7
370
    13
100
AcDbLine
 10
34.77482775713199
 20
116.6753540045624
 30
0.0
 11
34.77482775713199
 21
116.6329793300938
 31
0.0
  0
LINE
  5
19E
330
1F
100
AcDbEntity
  8
レイヤー 1
 62
     7
370
    13
100
AcDbLine
 10
34.77482775713199
 20
116.6329793300938
 30
0.0
 11
34.73262533743767
 21
116.5907769103995
 31
0.0
  0
LINE
  5
19F
330
1F
100
AcDbEntity
  8
レイヤー 1
 62
     7
370
    13
100
AcDbLine
 10
34.73262533743767
 20
116.5907769103995
 30
0.0
 11
31.4305013148257
 21
108.7590413437811
 31
0.0
  0
LINE
  5
1A0
330
1F
100
AcDbEntity
  8
レイヤー 1
 62
     7
370
    13
100
AcDbLine
 10
31.4305013148257
 20
108.7590413437811
 30
0.0
 11
31.4305013148257
 21
108.7166666693125
 31
0.0
  0
LINE
  5
1A1
330
1F
100
AcDbEntity
  8
レイヤー 1
 62
     7
370
    13
100
AcDbLine
 10
31.4305013148257
 20
108.7166666693125
 30
0.0
 11
31.38829889513141
 21
108.6742919948439
 31
0.0
  0
LINE
  5
1A2
330
1F
100
AcDbEntity
  8
レイヤー 1
 62
     7
370
    13
100
AcDbLine
 10
31.38829889513141
 20
108.6742919948439
 30
0.0
 11
31.34592422066282
 21
108.6319173203754
 31
0.0
  0
LINE
  5
1A3
330
1F
100
AcDbEntity
  8
レイヤー 1
 62
     7
370
    13
100
AcDbLine
 10
31.34592422066282
 20
108.6319173203754
 30
0.0
 11
31.30354954619426
 21
108.589714900681
 31
0.0
  0
LINE
  5
1A4
330
1F
100
AcDbEntity
  8
レイヤー 1
 62
     7
370
    13
100
AcDbLine
 10
31.30354954619426
 20
108.589714900681
 30
0.0
 11
31.26117487172567
 21
108.589714900681
 31
0.0
  0
LINE
  5
1A5
330
1F
100
AcDbEntity
  8
レイヤー 1
 62
     7
370
    13
100
AcDbLine
 10
31.26117487172567
 20
108.589714900681
 30
0.0
 11
31.26117487172567
 21
108.5473402262125
 31
0.0
  0
LINE
  5
1A6
330
1F
100
AcDbEntity
  8
レイヤー 1
 62
     7
370
    13
100
AcDbLine
 10
31.26117487172567
 20
108.5473402262125
 30
0.0
 11
31.21897245203138
 21
108.5473402262125
 31
0.0
  0
LINE
  5
1A7
330
1F
100
AcDbEntity
  8
レイヤー 1
 62
     7
370
    13
100
AcDbLine
 10
31.21897245203138
 20
108.5473402262125
 30
0.0
 11
31.17659777756279
 21
108.589714900681
 31
0.0
  0
LINE
  5
1A8
330
1F
100
AcDbEntity
  8
レイヤー 1
 62
     7
370
    13
100
AcDbLine
 10
31.17659777756279
 20
108.589714900681
 30
0.0
 11
30.07588977002547
 21
109.1824435789183
 31
0.0
  0
LINE
  5
1A9
330
1F
100
AcDbEntity
  8
レイヤー 1
 62
     7
370
    13
100
AcDbLine
 10
30.07588977002547
 20
109.1824435789183
 30
0.0
 11
30.03351509555691
 21
109.2246459986126
 31
0.0
  0
LINE
  5
1AA
330
1F
100
AcDbEntity
  8
レイヤー 1
 62
     7
370
    13
100
AcDbLine
 10
30.03351509555691
 20
109.2246459986126
 30
0.0
 11
30.03351509555691
 21
109.2670206730811
 31
0.0
  0
LINE
  5
1AB
330
1F
100
AcDbEntity
  8
レイヤー 1
 62
     7
370
    13
100
AcDbLine
 10
30.03351509555691
 20
109.2670206730811
 30
0.0
 11
30.03351509555691
 21
109.3515977672441
 31
0.0
  0
LINE
  5
1AC
330
1F
100
AcDbEntity
  8
レイヤー 1
 62
     7
370
    13
100
AcDbLine
 10
30.03351509555691
 20
109.3515977672441
 30
0.0
 11
30.07588977002547
 21
109.3939724417126
 31
0.0
  0
LINE
  5
1AD
330
1F
100
AcDbEntity
  8
レイヤー 1
 62
     7
370
    13
100
AcDbLine
 10
30.07588977002547
 20
109.3939724417126
 30
0.0
 11
30.11826444449406
 21
109.3939724417126
 31
0.0
  0
LINE
  5
1AE
330
1F
100
AcDbEntity
  8
レイヤー 1
 62
     7
370
    13
100
AcDbLine
 10
30.11826444449406
 20
109.3939724417126
 30
0.0
 11
30.83794489136272
 21
109.012944881044
 31
0.0
  0
LINE
  5
1AF
330
1F
100
AcDbEntity
  8
レイヤー 1
 62
     7
370
    13
100
AcDbLine
 10
30.83794489136272
 20
109.012944881044
 30
0.0
 11
30.83794489136272
 21
108.9283677868811
 31
0.0
  0
LINE
  5
1B0
330
1F
100
AcDbEntity
  8
レイヤー 1
 62
     7
370
    13
100
AcDbLine
 10
30.83794489136272
 20
108.9283677868811
 30
0.0
 11
30.07588977002547
 21
109.3093953475497
 31
0.0
  0
POINT
  5
1B1
330
1F
100
AcDbEntity
  8
レイヤー 1
 62
     7
370
    13
100
AcDbPoint
 10
30.07588977002547
 20
109.3093953475497
 30
0.0
  0
LINE
  5
1B2
330
1F
100
AcDbEntity
  8
レイヤー 1
 62
     7
370
    13
100
AcDbLine
 10
30.07588977002547
 20
109.3093953475497
 30
0.0
 11
30.07588977002547
 21
109.2670206730811
 31
0.0
  0
LINE
  5
1B3
330
1F
100
AcDbEntity
  8
レイヤー 1
 62
     7
370
    13
100
AcDbLine
 10
30.07588977002547
 20
109.2670206730811
 30
0.0
 11
31.21897245203138
 21
108.6742919948439
 31
0.0
  0
POINT
  5
1B4
330
1F
100
AcDbEntity
  8
レイヤー 1
 62
     7
370
    13
100
AcDbPoint
 10
31.21897245203138
 20
108.6742919948439
 30
0.0
  0
LINE
  5
1B5
330
1F
100
AcDbEntity
  8
レイヤー 1
 62
     7
370
    13
100
AcDbLine
 10
31.21897245203138
 20
108.6742919948439
 30
0.0
 11
31.26117487172567
 21
108.6742919948439
 31
0.0
  0
LINE
  5
1B6
330
1F
100
AcDbEntity
  8
レイヤー 1
 62
     7
370
    13
100
AcDbLine
 10
31.26117487172567
 20
108.6742919948439
 30
0.0
 11
31.30354954619426
 21
108.6742919948439
 31
0.0
  0
LINE
  5
1B7
330
1F
100
AcDbEntity
  8
レイヤー 1
 62
     7
370
    13
100
AcDbLine
 10
31.30354954619426
 20
108.6742919948439
 30
0.0
 11
31.34592422066282
 21
108.7166666693125
 31
0.0
  0
LINE
  5
1B8
330
1F
100
AcDbEntity
  8
レイヤー 1
 62
     7
370
    13
100
AcDbLine
 10
31.34592422066282
 20
108.7166666693125
 30
0.0
 11
31.38829889513141
 21
108.7590413437811
 31
0.0
  0
LINE
  5
1B9
330
1F
100
AcDbEntity
  8
レイヤー 1
 62
     7
370
    13
100
AcDbLine
 10
31.38829889513141
 20
108.7590413437811
 30
0.0
 11
31.38829889513141
 21
108.8014160182496
 31
0.0
  0
LINE
  5
1BA
330
1F
100
AcDbEntity
  8
レイヤー 1
 62
     7
370
    13
100
AcDbLine
 10
31.38829889513141
 20
108.8014160182496
 30
0.0
 11
34.69025066296911
 21
116.6329793300938
 31
0.0
  0
LINE
  5
1BB
330
1F
100
AcDbEntity
  8
レイヤー 1
 62
     7
370
    13
100
AcDbLine
 10
34.85957710606914
 20
116.8023057731939
 30
0.0
 11
34.81720243160055
 21
116.8023057731939
 31
0.0
  0
LINE
  5
1BC
330
1F
100
AcDbEntity
  8
レイヤー 1
 62
     7
370
    13
100
AcDbLine
 10
34.81720243160055
 20
116.8023057731939
 30
0.0
 11
34.77482775713199
 21
116.7599310987253
 31
0.0
  0
LINE
  5
1BD
330
1F
100
AcDbEntity
  8
レイヤー 1
 62
     7
370
    13
100
AcDbLine
 10
34.77482775713199
 20
116.7599310987253
 30
0.0
 11
34.73262533743767
 21
116.717728679031
 31
0.0
  0
LINE
  5
1BE
330
1F
100
AcDbEntity
  8
レイヤー 1
 62
     7
370
    13
100
AcDbLine
 10
34.73262533743767
 20
116.717728679031
 30
0.0
 11
34.73262533743767
 21
116.6753540045624
 31
0.0
  0
LINE
  5
1BF
330
1F
100
AcDbEntity
  8
レイヤー 1
 62
     7
370
    13
100
AcDbLine
 10
34.73262533743767
 20
116.6753540045624
 30
0.0
 11
34.69025066296911
 21
116.6329793300938
 31
0.0
  0
LINE
  5
1C0
330
1F
100
AcDbEntity
  8
レイヤー 1
 62
     7
370
    13
100
AcDbLine
 10
34.85957710606914
 20
116.8023057731939
 30
0.0
 11
36.29893799980653
 21
117.2257080083311
 31
0.0
  0
LINE
  5
1C1
330
1F
100
AcDbEntity
  8
レイヤー 1
 62
     7
370
    13
100
AcDbLine
 10
36.29893799980653
 20
117.2257080083311
 30
0.0
 11
36.34131267427509
 21
117.2257080083311
 31
0.0
  0
LINE
  5
1C2
330
1F
100
AcDbEntity
  8
レイヤー 1
 62
     7
370
    13
100
AcDbLine
 10
36.34131267427509
 20
117.2257080083311
 30
0.0
 11
36.38351509396941
 21
117.2680826827997
 31
0.0
  0
LINE
  5
1C3
330
1F
100
AcDbEntity
  8
レイヤー 1
 62
     7
370
    13
100
AcDbLine
 10
36.38351509396941
 20
117.2680826827997
 30
0.0
 11
36.42588976843797
 21
117.3526597769625
 31
0.0
  0
LINE
  5
1C4
330
1F
100
AcDbEntity
  8
レイヤー 1
 62
     7
370
    13
100
AcDbLine
 10
36.42588976843797
 20
117.3526597769625
 30
0.0
 11
36.46826444290656
 21
117.3950344514311
 31
0.0
  0
LINE
  5
1C5
330
1F
100
AcDbEntity
  8
レイヤー 1
 62
     7
370
    13
100
AcDbLine
 10
36.46826444290656
 20
117.3950344514311
 30
0.0
 11
36.46826444290656
 21
117.4374091258997
 31
0.0
  0
LINE
  5
1C6
330
1F
100
AcDbEntity
  8
レイヤー 1
 62
     7
370
    13
100
AcDbLine
 10
36.46826444290656
 20
117.4374091258997
 30
0.0
 11
36.46826444290656
 21
117.5219862200626
 31
0.0
  0
LINE
  5
1C7
330
1F
100
AcDbEntity
  8
レイヤー 1
 62
     7
370
    13
100
AcDbLine
 10
36.46826444290656
 20
117.5219862200626
 30
0.0
 11
36.76454265463803
 21
125.776951767044
 31
0.0
  0
LINE
  5
1C8
330
1F
100
AcDbEntity
  8
レイヤー 1
 62
     7
370
    13
100
AcDbLine
 10
36.84929200357519
 20
125.9040757904497
 30
0.0
 11
36.8069173291066
 21
125.9040757904497
 31
0.0
  0
LINE
  5
1C9
330
1F
100
AcDbEntity
  8
レイヤー 1
 62
     7
370
    13
100
AcDbLine
 10
36.8069173291066
 20
125.9040757904497
 30
0.0
 11
36.76454265463803
 21
125.8617011159811
 31
0.0
  0
LINE
  5
1CA
330
1F
100
AcDbEntity
  8
レイヤー 1
 62
     7
370
    13
100
AcDbLine
 10
36.76454265463803
 20
125.8617011159811
 30
0.0
 11
36.76454265463803
 21
125.8193264415125
 31
0.0
  0
LINE
  5
1CB
330
1F
100
AcDbEntity
  8
レイヤー 1
 62
     7
370
    13
100
AcDbLine
 10
36.76454265463803
 20
125.8193264415125
 30
0.0
 11
36.76454265463803
 21
125.776951767044
 31
0.0
  0
LINE
  5
1CC
330
1F
100
AcDbEntity
  8
レイヤー 1
 62
     7
370
    13
100
AcDbLine
 10
36.84929200357519
 20
125.9040757904497
 30
0.0
 11
48.15230578113136
 21
129.0790757896559
 31
0.0
  0
LINE
  5
1CD
330
1F
100
AcDbEntity
  8
レイヤー 1
 62
     7
370
    13
100
AcDbLine
 10
312.9895425855818
 20
64.69006891556221
 30
0.0
 11
53.86720242683808
 21
115.8287217890623
 31
0.0
  0
LINE
  5
1CE
330
1F
100
AcDbEntity
  8
レイヤー 1
 62
     7
370
    13
100
AcDbLine
 10
312.9895425855818
 20
64.69006891556221
 30
0.0
 11
311.8044297386559
 21
63.42003446492485
 31
0.0
  0
LINE
  5
1CF
330
1F
100
AcDbEntity
  8
レイヤー 1
 62
     7
370
    13
100
AcDbLine
 10
311.8044297386559
 20
63.42003446492485
 30
0.0
 11
52.68191732513785
 21
114.6010620128935
 31
0.0
  0
LINE
  5
1D0
330
1F
100
AcDbEntity
  8
レイヤー 1
 62
     7
370
    13
100
AcDbLine
 10
53.10531956027506
 20
115.1090413421936
 30
0.0
 11
53.0629448858065
 21
115.1090413421936
 31
0.0
  0
POINT
  5
1D1
330
1F
100
AcDbEntity
  8
レイヤー 1
 62
     7
370
    13
100
AcDbPoint
 10
312.9895425855818
 20
64.90159777835653
 30
0.0
  0
LINE
  5
1D2
330
1F
100
AcDbEntity
  8
レイヤー 1
 62
     7
370
    13
100
AcDbLine
 10
312.9895425855818
 20
64.90159777835653
 30
0.0
 11
312.9895425855818
 21
64.85939535866224
 31
0.0
  0
LINE
  5
1D3
330
1F
100
AcDbEntity
  8
レイヤー 1
 62
     7
370
    13
100
AcDbLine
 10
312.9895425855818
 20
64.85939535866224
 30
0.0
 11
313.0319172600504
 21
64.85939535866224
 31
0.0
  0
LINE
  5
1D4
330
1F
100
AcDbEntity
  8
レイヤー 1
 62
     7
370
    13
100
AcDbLine
 10
313.0319172600504
 20
64.85939535866224
 30
0.0
 11
313.0319172600504
 21
64.81702068419365
 31
0.0
  0
LINE
  5
1D5
330
1F
100
AcDbEntity
  8
レイヤー 1
 62
     7
370
    13
100
AcDbLine
 10
313.0319172600504
 20
64.81702068419365
 30
0.0
 11
313.0319172600504
 21
64.77464600972509
 31
0.0
  0
LINE
  5
1D6
330
1F
100
AcDbEntity
  8
レイヤー 1
 62
     7
370
    13
100
AcDbLine
 10
313.0319172600504
 20
64.77464600972509
 30
0.0
 11
312.9895425855818
 21
64.73244359003077
 31
0.0
  0
LINE
  5
1D7
330
1F
100
AcDbEntity
  8
レイヤー 1
 62
     7
370
    13
100
AcDbLine
 10
312.9895425855818
 20
64.73244359003077
 30
0.0
 11
312.9895425855818
 21
64.69006891556221
 31
0.0
  0
LINE
  5
1D8
330
1F
100
AcDbEntity
  8
レイヤー 1
 62
     7
370
    13
100
AcDbLine
 10
311.6349310407816
 20
63.37765979045629
 30
0.0
 11
311.6773057152502
 21
63.37765979045629
 31
0.0
  0
LINE
  5
1D9
330
1F
100
AcDbEntity
  8
レイヤー 1
 62
     7
370
    13
100
AcDbLine
 10
311.6773057152502
 20
63.37765979045629
 30
0.0
 11
311.7196803897187
 21
63.37765979045629
 31
0.0
  0
LINE
  5
1DA
330
1F
100
AcDbEntity
  8
レイヤー 1
 62
     7
370
    13
100
AcDbLine
 10
311.7196803897187
 20
63.37765979045629
 30
0.0
 11
311.7617105546387
 21
63.37765979045629
 31
0.0
  0
LINE
  5
1DB
330
1F
100
AcDbEntity
  8
レイヤー 1
 62
     7
370
    13
100
AcDbLine
 10
311.7617105546387
 20
63.37765979045629
 30
0.0
 11
311.8044297386559
 21
63.42003446492485
 31
0.0
  0
LINE
  5
1DC
330
1F
100
AcDbEntity
  8
レイヤー 1
 62
     7
370
    13
100
AcDbLine
 10
308.7562092533068
 20
69.64308269470588
 30
0.0
 11
49.67624376903163
 21
120.7817355682059
 31
0.0
  0
LINE
  5
1DD
330
1F
100
AcDbEntity
  8
レイヤー 1
 62
     7
370
    13
100
AcDbLine
 10
308.7562092533068
 20
69.64308269470588
 30
0.0
 11
310.7460964055871
 21
65.32500001349375
 31
0.0
  0
LINE
  5
1DE
330
1F
100
AcDbEntity
  8
レイヤー 1
 62
     7
370
    13
100
AcDbLine
 10
308.7562092533068
 20
69.64308269470588
 30
0.0
 11
308.7562092533068
 21
69.6852851144002
 31
0.0
  0
LINE
  5
1DF
330
1F
100
AcDbEntity
  8
レイヤー 1
 62
     7
370
    13
100
AcDbLine
 10
308.7562092533068
 20
69.6852851144002
 30
0.0
 11
308.7138345788382
 21
69.6852851144002
 31
0.0
  0
LINE
  5
1E0
330
1F
100
AcDbEntity
  8
レイヤー 1
 62
     7
370
    13
100
AcDbLine
 10
308.7138345788382
 20
69.6852851144002
 30
0.0
 11
308.6714599043697
 21
69.72765978886879
 31
0.0
  0
LINE
  5
1E1
330
1F
100
AcDbEntity
  8
レイヤー 1
 62
     7
370
    13
100
AcDbLine
 10
86.37925754023783
 20
118.5379448786627
 30
0.0
 11
86.2099310971378
 21
118.5379448786627
 31
0.0
  0
LINE
  5
1E2
330
1F
100
AcDbEntity
  8
レイヤー 1
 62
     7
370
    13
100
AcDbLine
 10
86.2099310971378
 20
118.5379448786627
 30
0.0
 11
86.08280707373208
 21
118.4533677844999
 31
0.0
  0
LINE
  5
1E3
330
1F
100
AcDbEntity
  8
レイヤー 1
 62
     7
370
    13
100
AcDbLine
 10
86.08280707373208
 20
118.4533677844999
 30
0.0
 11
85.9982299795692
 21
118.2840413413998
 31
0.0
  0
LINE
  5
1E4
330
1F
100
AcDbEntity
  8
レイヤー 1
 62
     7
370
    13
100
AcDbLine
 10
85.9982299795692
 20
118.2840413413998
 30
0.0
 11
85.95585530510061
 21
118.1147148982998
 31
0.0
  0
LINE
  5
1E5
330
1F
100
AcDbEntity
  8
レイヤー 1
 62
     7
370
    13
100
AcDbLine
 10
85.95585530510061
 20
118.1147148982998
 30
0.0
 11
85.9982299795692
 21
117.9453884551998
 31
0.0
  0
LINE
  5
1E6
330
1F
100
AcDbEntity
  8
レイヤー 1
 62
     7
370
    13
100
AcDbLine
 10
85.9982299795692
 20
117.9453884551998
 30
0.0
 11
86.04060465403776
 21
117.7336873376312
 31
0.0
  0
LINE
  5
1E7
330
1F
100
AcDbEntity
  8
レイヤー 1
 62
     7
370
    13
100
AcDbLine
 10
86.04060465403776
 20
117.7336873376312
 30
0.0
 11
86.2099310971378
 21
117.6067355689997
 31
0.0
  0
LINE
  5
1E8
330
1F
100
AcDbEntity
  8
レイヤー 1
 62
     7
370
    13
100
AcDbLine
 10
86.2099310971378
 20
117.6067355689997
 30
0.0
 11
86.33688286576927
 21
117.5643608945311
 31
0.0
  0
LINE
  5
1E9
330
1F
100
AcDbEntity
  8
レイヤー 1
 62
     7
370
    13
100
AcDbLine
 10
86.33688286576927
 20
117.5643608945311
 30
0.0
 11
86.50620930886927
 21
117.5643608945311
 31
0.0
  0
LINE
  5
1EA
330
1F
100
AcDbEntity
  8
レイヤー 1
 62
     7
370
    13
100
AcDbLine
 10
86.50620930886927
 20
117.5643608945311
 30
0.0
 11
86.63333333227501
 21
117.6491102434683
 31
0.0
  0
LINE
  5
1EB
330
1F
100
AcDbEntity
  8
レイヤー 1
 62
     7
370
    13
100
AcDbLine
 10
86.63333333227501
 20
117.6491102434683
 30
0.0
 11
86.7179104264379
 21
117.7760620120997
 31
0.0
  0
LINE
  5
1EC
330
1F
100
AcDbEntity
  8
レイヤー 1
 62
     7
370
    13
100
AcDbLine
 10
86.7179104264379
 20
117.7760620120997
 30
0.0
 11
86.76028510090646
 21
117.9453884551998
 31
0.0
  0
LINE
  5
1ED
330
1F
100
AcDbEntity
  8
レイヤー 1
 62
     7
370
    13
100
AcDbLine
 10
86.76028510090646
 20
117.9453884551998
 30
0.0
 11
86.76028510090646
 21
118.1569173179941
 31
0.0
  0
LINE
  5
1EE
330
1F
100
AcDbEntity
  8
レイヤー 1
 62
     7
370
    13
100
AcDbLine
 10
86.76028510090646
 20
118.1569173179941
 30
0.0
 11
86.6755357519693
 21
118.3264160158684
 31
0.0
  0
LINE
  5
1EF
330
1F
100
AcDbEntity
  8
レイヤー 1
 62
     7
370
    13
100
AcDbLine
 10
86.6755357519693
 20
118.3264160158684
 30
0.0
 11
86.54858398333786
 21
118.4533677844999
 31
0.0
  0
LINE
  5
1F0
330
1F
100
AcDbEntity
  8
レイヤー 1
 62
     7
370
    13
100
AcDbLine
 10
86.54858398333786
 20
118.4533677844999
 30
0.0
 11
86.37925754023783
 21
118.5379448786627
 31
0.0
  0
LINE
  5
1F1
330
1F
100
AcDbEntity
  8
レイヤー 1
 62
     7
370
    13
100
AcDbLine
 10
268.9205701573629
 20
82.51240913463091
 30
0.0
 11
268.7934461339572
 21
82.47003446016235
 31
0.0
  0
LINE
  5
1F2
330
1F
100
AcDbEntity
  8
レイヤー 1
 62
     7
370
    13
100
AcDbLine
 10
268.7934461339572
 20
82.47003446016235
 30
0.0
 11
268.6242919456315
 21
82.3852851112252
 31
0.0
  0
LINE
  5
1F3
330
1F
100
AcDbEntity
  8
レイヤー 1
 62
     7
370
    13
100
AcDbLine
 10
268.6242919456315
 20
82.3852851112252
 30
0.0
 11
268.5395425966943
 21
82.25833334259376
 31
0.0
  0
LINE
  5
1F4
330
1F
100
AcDbEntity
  8
レイヤー 1
 62
     7
370
    13
100
AcDbLine
 10
268.5395425966943
 20
82.25833334259376
 30
0.0
 11
268.4971679222257
 21
82.08900689949373
 31
0.0
  0
LINE
  5
1F5
330
1F
100
AcDbEntity
  8
レイヤー 1
 62
     7
370
    13
100
AcDbLine
 10
268.4971679222257
 20
82.08900689949373
 30
0.0
 11
268.5395425966943
 21
81.87730578192513
 31
0.0
  0
LINE
  5
1F6
330
1F
100
AcDbEntity
  8
レイヤー 1
 62
     7
370
    13
100
AcDbLine
 10
268.5395425966943
 20
81.87730578192513
 30
0.0
 11
268.6242919456315
 21
81.7079793388251
 31
0.0
  0
LINE
  5
1F7
330
1F
100
AcDbEntity
  8
レイヤー 1
 62
     7
370
    13
100
AcDbLine
 10
268.6242919456315
 20
81.7079793388251
 30
0.0
 11
268.7510714594886
 21
81.58102757019363
 31
0.0
  0
LINE
  5
1F8
330
1F
100
AcDbEntity
  8
レイヤー 1
 62
     7
370
    13
100
AcDbLine
 10
268.7510714594886
 20
81.58102757019363
 30
0.0
 11
268.9205701573629
 21
81.49627822125647
 31
0.0
  0
LINE
  5
1F9
330
1F
100
AcDbEntity
  8
レイヤー 1
 62
     7
370
    13
100
AcDbLine
 10
268.9205701573629
 20
81.49627822125647
 30
0.0
 11
269.0476941807686
 21
81.49627822125647
 31
0.0
  0
LINE
  5
1FA
330
1F
100
AcDbEntity
  8
レイヤー 1
 62
     7
370
    13
100
AcDbLine
 10
269.0476941807686
 20
81.49627822125647
 30
0.0
 11
269.2168483690944
 21
81.58102757019363
 31
0.0
  0
LINE
  5
1FB
330
1F
100
AcDbEntity
  8
レイヤー 1
 62
     7
370
    13
100
AcDbLine
 10
269.2168483690944
 20
81.58102757019363
 30
0.0
 11
269.3015977180315
 21
81.75035401329366
 31
0.0
  0
LINE
  5
1FC
330
1F
100
AcDbEntity
  8
レイヤー 1
 62
     7
370
    13
100
AcDbLine
 10
269.3015977180315
 20
81.75035401329366
 30
0.0
 11
269.3439723925001
 21
81.91968045639369
 31
0.0
  0
LINE
  5
1FD
330
1F
100
AcDbEntity
  8
レイヤー 1
 62
     7
370
    13
100
AcDbLine
 10
269.3439723925001
 20
81.91968045639369
 30
0.0
 11
269.3015977180315
 21
82.13138157396229
 31
0.0
  0
LINE
  5
1FE
330
1F
100
AcDbEntity
  8
レイヤー 1
 62
     7
370
    13
100
AcDbLine
 10
269.3015977180315
 20
82.13138157396229
 30
0.0
 11
269.2168483690944
 21
82.30070801706232
 31
0.0
  0
LINE
  5
1FF
330
1F
100
AcDbEntity
  8
レイヤー 1
 62
     7
370
    13
100
AcDbLine
 10
269.2168483690944
 20
82.30070801706232
 30
0.0
 11
269.0900688552372
 21
82.42765978569379
 31
0.0
  0
LINE
  5
200
330
1F
100
AcDbEntity
  8
レイヤー 1
 62
     7
370
    13
100
AcDbLine
 10
269.0900688552372
 20
82.42765978569379
 30
0.0
 11
268.9205701573629
 21
82.51240913463091
 31
0.0
  0
LINE
  5
201
330
1F
100
AcDbEntity
  8
レイヤー 1
 62
     7
370
    13
100
AcDbLine
 10
307.3168483595694
 20
77.81329889275015
 30
0.0
 11
48.19450820082568
 21
128.9519517662502
 31
0.0
  0
LINE
  5
202
330
1F
100
AcDbEntity
  8
レイヤー 1
 62
     7
370
    13
100
AcDbLine
 10
307.3168483595694
 20
77.81329889275015
 30
0.0
 11
307.0629448223065
 21
70.06631267506883
 31
0.0
  0
LINE
  5
203
330
1F
100
AcDbEntity
  8
レイヤー 1
 62
     7
370
    13
100
AcDbLine
 10
273.0691541407008
 20
81.66577691913078
 30
0.0
 11
272.9423746268436
 21
81.66577691913078
 31
0.0
  0
LINE
  5
204
330
1F
100
AcDbEntity
  8
レイヤー 1
 62
     7
370
    13
100
AcDbLine
 10
272.9423746268436
 20
81.66577691913078
 30
0.0
 11
272.7728759289693
 21
81.58102757019363
 31
0.0
  0
LINE
  5
205
330
1F
100
AcDbEntity
  8
レイヤー 1
 62
     7
370
    13
100
AcDbLine
 10
272.7728759289693
 20
81.58102757019363
 30
0.0
 11
272.6881265800321
 21
81.45407580156218
 31
0.0
  0
LINE
  5
206
330
1F
100
AcDbEntity
  8
レイヤー 1
 62
     7
370
    13
100
AcDbLine
 10
272.6881265800321
 20
81.45407580156218
 30
0.0
 11
272.6460964151121
 21
81.24237468399356
 31
0.0
  0
LINE
  5
207
330
1F
100
AcDbEntity
  8
レイヤー 1
 62
     7
370
    13
100
AcDbLine
 10
272.6460964151121
 20
81.24237468399356
 30
0.0
 11
272.6881265800321
 21
81.07304824089356
 31
0.0
  0
LINE
  5
208
330
1F
100
AcDbEntity
  8
レイヤー 1
 62
     7
370
    13
100
AcDbLine
 10
272.6881265800321
 20
81.07304824089356
 30
0.0
 11
272.7728759289693
 21
80.90372179779352
 31
0.0
  0
LINE
  5
209
330
1F
100
AcDbEntity
  8
レイヤー 1
 62
     7
370
    13
100
AcDbLine
 10
272.7728759289693
 20
80.90372179779352
 30
0.0
 11
272.899999952375
 21
80.73439535469349
 31
0.0
  0
LINE
  5
20A
330
1F
100
AcDbEntity
  8
レイヤー 1
 62
     7
370
    13
100
AcDbLine
 10
272.899999952375
 20
80.73439535469349
 30
0.0
 11
273.0691541407008
 21
80.6920206802249
 31
0.0
  0
LINE
  5
20B
330
1F
100
AcDbEntity
  8
レイヤー 1
 62
     7
370
    13
100
AcDbLine
 10
273.0691541407008
 20
80.6920206802249
 30
0.0
 11
273.1962781641065
 21
80.6920206802249
 31
0.0
  0
LINE
  5
20C
330
1F
100
AcDbEntity
  8
レイヤー 1
 62
     7
370
    13
100
AcDbLine
 10
273.1962781641065
 20
80.6920206802249
 30
0.0
 11
273.3654323524323
 21
80.77659777438778
 31
0.0
  0
LINE
  5
20D
330
1F
100
AcDbEntity
  8
レイヤー 1
 62
     7
370
    13
100
AcDbLine
 10
273.3654323524323
 20
80.77659777438778
 30
0.0
 11
273.4501817013694
 21
80.90372179779352
 31
0.0
  0
LINE
  5
20E
330
1F
100
AcDbEntity
  8
レイヤー 1
 62
     7
370
    13
100
AcDbLine
 10
273.4501817013694
 20
80.90372179779352
 30
0.0
 11
273.492556375838
 21
81.11525066058785
 31
0.0
  0
LINE
  5
20F
330
1F
100
AcDbEntity
  8
レイヤー 1
 62
     7
370
    13
100
AcDbLine
 10
273.492556375838
 20
81.11525066058785
 30
0.0
 11
273.4501817013694
 21
81.28474935846215
 31
0.0
  0
LINE
  5
210
330
1F
100
AcDbEntity
  8
レイヤー 1
 62
     7
370
    13
100
AcDbLine
 10
273.4501817013694
 20
81.28474935846215
 30
0.0
 11
273.3654323524323
 21
81.45407580156218
 31
0.0
  0
LINE
  5
211
330
1F
100
AcDbEntity
  8
レイヤー 1
 62
     7
370
    13
100
AcDbLine
 10
273.3654323524323
 20
81.45407580156218
 30
0.0
 11
273.2386528385751
 21
81.62340224466222
 31
0.0
  0
LINE
  5
212
330
1F
100
AcDbEntity
  8
レイヤー 1
 62
     7
370
    13
100
AcDbLine
 10
273.2386528385751
 20
81.62340224466222
 30
0.0
 11
273.0691541407008
 21
81.66577691913078
 31
0.0
  0
LINE
  5
213
330
1F
100
AcDbEntity
  8
レイヤー 1
 62
     7
370
    13
100
AcDbLine
 10
82.2305013021257
 20
119.3423746744686
 30
0.0
 11
82.06117485902567
 21
119.3423746744686
 31
0.0
  0
LINE
  5
214
330
1F
100
AcDbEntity
  8
レイヤー 1
 62
     7
370
    13
100
AcDbLine
 10
82.06117485902567
 20
119.3423746744686
 30
0.0
 11
81.93422309039423
 21
119.2576253255314
 31
0.0
  0
LINE
  5
215
330
1F
100
AcDbEntity
  8
レイヤー 1
 62
     7
370
    13
100
AcDbLine
 10
81.93422309039423
 20
119.2576253255314
 30
0.0
 11
81.84947374145707
 21
119.1306735569
 31
0.0
  0
LINE
  5
216
330
1F
100
AcDbEntity
  8
レイヤー 1
 62
     7
370
    13
100
AcDbLine
 10
81.84947374145707
 20
119.1306735569
 30
0.0
 11
81.80727132176278
 21
118.9189724393314
 31
0.0
  0
LINE
  5
217
330
1F
100
AcDbEntity
  8
レイヤー 1
 62
     7
370
    13
100
AcDbLine
 10
81.80727132176278
 20
118.9189724393314
 30
0.0
 11
81.84947374145707
 21
118.7496459962313
 31
0.0
  0
LINE
  5
218
330
1F
100
AcDbEntity
  8
レイヤー 1
 62
     7
370
    13
100
AcDbLine
 10
81.84947374145707
 20
118.7496459962313
 30
0.0
 11
81.89184841592566
 21
118.5803195531313
 31
0.0
  0
LINE
  5
219
330
1F
100
AcDbEntity
  8
レイヤー 1
 62
     7
370
    13
100
AcDbLine
 10
81.89184841592566
 20
118.5803195531313
 30
0.0
 11
82.06117485902567
 21
118.4109931100313
 31
0.0
  0
LINE
  5
21A
330
1F
100
AcDbEntity
  8
レイヤー 1
 62
     7
370
    13
100
AcDbLine
 10
82.06117485902567
 20
118.4109931100313
 30
0.0
 11
82.18829888243141
 21
118.3686184355627
 31
0.0
  0
LINE
  5
21B
330
1F
100
AcDbEntity
  8
レイヤー 1
 62
     7
370
    13
100
AcDbLine
 10
82.18829888243141
 20
118.3686184355627
 30
0.0
 11
82.35762532553144
 21
118.3686184355627
 31
0.0
  0
LINE
  5
21C
330
1F
100
AcDbEntity
  8
レイヤー 1
 62
     7
370
    13
100
AcDbLine
 10
82.35762532553144
 20
118.3686184355627
 30
0.0
 11
82.48457709416289
 21
118.4533677844999
 31
0.0
  0
LINE
  5
21D
330
1F
100
AcDbEntity
  8
レイヤー 1
 62
     7
370
    13
100
AcDbLine
 10
82.48457709416289
 20
118.4533677844999
 30
0.0
 11
82.56915418832577
 21
118.5803195531313
 31
0.0
  0
LINE
  5
21E
330
1F
100
AcDbEntity
  8
レイヤー 1
 62
     7
370
    13
100
AcDbLine
 10
82.56915418832577
 20
118.5803195531313
 30
0.0
 11
82.61152886279433
 21
118.7920206706999
 31
0.0
  0
LINE
  5
21F
330
1F
100
AcDbEntity
  8
レイヤー 1
 62
     7
370
    13
100
AcDbLine
 10
82.61152886279433
 20
118.7920206706999
 30
0.0
 11
82.61152886279433
 21
118.9613471137999
 31
0.0
  0
LINE
  5
220
330
1F
100
AcDbEntity
  8
レイヤー 1
 62
     7
370
    13
100
AcDbLine
 10
82.61152886279433
 20
118.9613471137999
 30
0.0
 11
82.52695176863145
 21
119.1306735569
 31
0.0
  0
LINE
  5
221
330
1F
100
AcDbEntity
  8
レイヤー 1
 62
     7
370
    13
100
AcDbLine
 10
82.52695176863145
 20
119.1306735569
 30
0.0
 11
82.4
 21
119.3
 31
0.0
  0
LINE
  5
222
330
1F
100
AcDbEntity
  8
レイヤー 1
 62
     7
370
    13
100
AcDbLine
 10
82.4
 20
119.3
 30
0.0
 11
82.2305013021257
 21
119.3423746744686
 31
0.0
  0
POINT
  5
223
330
1F
100
AcDbEntity
  8
レイヤー 1
 62
     7
370
    13
100
AcDbPoint
 10
307.2744736851008
 20
77.8980482416873
 30
0.0
  0
LINE
  5
224
330
1F
100
AcDbEntity
  8
レイヤー 1
 62
     7
370
    13
100
AcDbLine
 10
307.2744736851008
 20
77.8980482416873
 30
0.0
 11
307.3168483595694
 21
77.8980482416873
 31
0.0
  0
LINE
  5
225
330
1F
100
AcDbEntity
  8
レイヤー 1
 62
     7
370
    13
100
AcDbLine
 10
307.3168483595694
 20
77.8980482416873
 30
0.0
 11
307.3168483595694
 21
77.85567356721872
 31
0.0
  0
LINE
  5
226
330
1F
100
AcDbEntity
  8
レイヤー 1
 62
     7
370
    13
100
AcDbLine
 10
307.3168483595694
 20
77.85567356721872
 30
0.0
 11
307.3168483595694
 21
77.81329889275015
 31
0.0
  0
LINE
  5
227
330
1F
100
AcDbEntity
  8
レイヤー 1
 62
     7
370
    13
100
AcDbLine
 10
41.37890354758167
 20
124.9303195515438
 30
0.0
 11
41.33652887311308
 21
124.9303195515438
 31
0.0
  0
LINE
  5
228
330
1F
100
AcDbEntity
  8
レイヤー 1
 62
     7
370
    13
100
AcDbLine
 10
36.97624377220663
 20
125.776951767044
 30
0.0
 11
36.8069173291066
 21
125.8193264415125
 31
0.0
  0
LINE
  5
229
330
1F
100
AcDbEntity
  8
レイヤー 1
 62
     7
370
    13
100
AcDbLine
 10
293.2622368179442
 20
64.01276314316208
 30
0.0
 11
290.5530137283437
 21
57.62038847028101
 31
0.0
  0
LINE
  5
22A
330
1F
100
AcDbEntity
  8
レイヤー 1
 62
     7
370
    13
100
AcDbLine
 10
290.5530137283437
 20
57.62038847028101
 30
0.0
 11
31.4305013148257
 21
108.7590413437811
 31
0.0
  0
LINE
  5
22B
330
1F
100
AcDbEntity
  8
レイヤー 1
 62
     7
370
    13
100
AcDbLine
 10
68.93794488183775
 20
106.0920206738749
 30
0.0
 11
68.89557020736916
 21
106.0920206738749
 31
0.0
  0
LINE
  5
22C
330
1F
100
AcDbEntity
  8
レイヤー 1
 62
     7
370
    13
100
AcDbLine
 10
68.89557020736916
 20
106.0920206738749
 30
0.0
 11
68.89557020736916
 21
106.1343953483435
 31
0.0
  0
LINE
  5
22D
330
1F
100
AcDbEntity
  8
レイヤー 1
 62
     7
370
    13
100
AcDbLine
 10
68.89557020736916
 20
106.1343953483435
 30
0.0
 11
68.89557020736916
 21
106.1765977680378
 31
0.0
  0
LINE
  5
22E
330
1F
100
AcDbEntity
  8
レイヤー 1
 62
     7
370
    13
100
AcDbLine
 10
68.89557020736916
 20
106.1765977680378
 30
0.0
 11
68.93794488183775
 21
106.1765977680378
 31
0.0
  0
LINE
  5
22F
330
1F
100
AcDbEntity
  8
レイヤー 1
 62
     7
370
    13
100
AcDbLine
 10
70.03865288937507
 20
105.8379448818377
 30
0.0
 11
68.93794488183775
 21
106.0920206738749
 31
0.0
  0
LINE
  5
230
330
1F
100
AcDbEntity
  8
レイヤー 1
 62
     7
370
    13
100
AcDbLine
 10
70.03865288937507
 20
107.1079793324751
 30
0.0
 11
70.12322998353795
 21
105.9650689052435
 31
0.0
  0
POINT
  5
231
330
1F
100
AcDbEntity
  8
レイヤー 1
 62
     7
370
    13
100
AcDbPoint
 10
69.91152886596933
 20
107.1079793324751
 30
0.0
  0
LINE
  5
232
330
1F
100
AcDbEntity
  8
レイヤー 1
 62
     7
370
    13
100
AcDbLine
 10
69.91152886596933
 20
107.1079793324751
 30
0.0
 11
69.95390354043792
 21
107.1503540069437
 31
0.0
  0
LINE
  5
233
330
1F
100
AcDbEntity
  8
レイヤー 1
 62
     7
370
    13
100
AcDbLine
 10
69.95390354043792
 20
107.1503540069437
 30
0.0
 11
69.99627821490648
 21
107.1503540069437
 31
0.0
  0
LINE
  5
234
330
1F
100
AcDbEntity
  8
レイヤー 1
 62
     7
370
    13
100
AcDbLine
 10
69.99627821490648
 20
107.1503540069437
 30
0.0
 11
69.99627821490648
 21
107.1079793324751
 31
0.0
  0
LINE
  5
235
330
1F
100
AcDbEntity
  8
レイヤー 1
 62
     7
370
    13
100
AcDbLine
 10
69.99627821490648
 20
107.1079793324751
 30
0.0
 11
70.03865288937507
 21
107.1079793324751
 31
0.0
  0
LINE
  5
236
330
1F
100
AcDbEntity
  8
レイヤー 1
 62
     7
370
    13
100
AcDbLine
 10
68.93794488183775
 20
106.1765977680378
 30
0.0
 11
69.91152886596933
 21
107.1079793324751
 31
0.0
  0
POINT
  5
237
330
1F
100
AcDbEntity
  8
レイヤー 1
 62
     7
370
    13
100
AcDbPoint
 10
255.628013737075
 20
69.21968045956869
 30
0.0
  0
LINE
  5
238
330
1F
100
AcDbEntity
  8
レイヤー 1
 62
     7
370
    13
100
AcDbLine
 10
255.628013737075
 20
69.21968045956869
 30
0.0
 11
255.5856390626064
 21
69.21968045956869
 31
0.0
  0
LINE
  5
239
330
1F
100
AcDbEntity
  8
レイヤー 1
 62
     7
370
    13
100
AcDbLine
 10
255.5856390626064
 20
69.21968045956869
 30
0.0
 11
255.5856390626064
 21
69.26205513403725
 31
0.0
  0
LINE
  5
23A
330
1F
100
AcDbEntity
  8
レイヤー 1
 62
     7
370
    13
100
AcDbLine
 10
255.5856390626064
 20
69.26205513403725
 30
0.0
 11
255.5856390626064
 21
69.30442980850584
 31
0.0
  0
LINE
  5
23B
330
1F
100
AcDbEntity
  8
レイヤー 1
 62
     7
370
    13
100
AcDbLine
 10
255.5856390626064
 20
69.30442980850584
 30
0.0
 11
255.628013737075
 21
69.30442980850584
 31
0.0
  0
LINE
  5
23C
330
1F
100
AcDbEntity
  8
レイヤー 1
 62
     7
370
    13
100
AcDbLine
 10
256.7287217446123
 20
69.0079793420001
 30
0.0
 11
255.628013737075
 21
69.21968045956869
 31
0.0
  0
LINE
  5
23D
330
1F
100
AcDbEntity
  8
レイヤー 1
 62
     7
370
    13
100
AcDbLine
 10
256.7287217446123
 20
70.23563911816886
 30
0.0
 11
256.8131265840009
 21
69.09272869093722
 31
0.0
  0
LINE
  5
23E
330
1F
100
AcDbEntity
  8
レイヤー 1
 62
     7
370
    13
100
AcDbLine
 10
256.6015977212065
 20
70.23563911816886
 30
0.0
 11
256.6439723956751
 21
70.27801379263745
 31
0.0
  0
LINE
  5
23F
330
1F
100
AcDbEntity
  8
レイヤー 1
 62
     7
370
    13
100
AcDbLine
 10
256.6439723956751
 20
70.27801379263745
 30
0.0
 11
256.6863470701437
 21
70.27801379263745
 31
0.0
  0
LINE
  5
240
330
1F
100
AcDbEntity
  8
レイヤー 1
 62
     7
370
    13
100
AcDbLine
 10
256.6863470701437
 20
70.27801379263745
 30
0.0
 11
256.7287217446123
 21
70.27801379263745
 31
0.0
  0
LINE
  5
241
330
1F
100
AcDbEntity
  8
レイヤー 1
 62
     7
370
    13
100
AcDbLine
 10
256.7287217446123
 20
70.27801379263745
 30
0.0
 11
256.7287217446123
 21
70.23563911816886
 31
0.0
  0
LINE
  5
242
330
1F
100
AcDbEntity
  8
レイヤー 1
 62
     7
370
    13
100
AcDbLine
 10
255.628013737075
 20
69.30442980850584
 30
0.0
 11
256.6015977212065
 21
70.23563911816886
 31
0.0
  0
LINE
  5
243
330
1F
100
AcDbEntity
  8
レイヤー 1
 62
     7
370
    13
100
AcDbLine
 10
290.5530137283437
 20
57.62038847028101
 30
0.0
 11
290.5106390538751
 21
57.53563912134386
 31
0.0
  0
LINE
  5
244
330
1F
100
AcDbEntity
  8
レイヤー 1
 62
     7
370
    13
100
AcDbLine
 10
290.5106390538751
 20
57.53563912134386
 30
0.0
 11
290.5106390538751
 21
57.4932644468753
 31
0.0
  0
LINE
  5
245
330
1F
100
AcDbEntity
  8
レイヤー 1
 62
     7
370
    13
100
AcDbLine
 10
290.5106390538751
 20
57.4932644468753
 30
0.0
 11
290.4682643794065
 21
57.45106202718098
 31
0.0
  0
LINE
  5
246
330
1F
100
AcDbEntity
  8
レイヤー 1
 62
     7
370
    13
100
AcDbLine
 10
290.4682643794065
 20
57.45106202718098
 30
0.0
 11
290.425889704938
 21
57.45106202718098
 31
0.0
  0
LINE
  5
247
330
1F
100
AcDbEntity
  8
レイヤー 1
 62
     7
370
    13
100
AcDbLine
 10
290.425889704938
 20
57.45106202718098
 30
0.0
 11
290.3835150304694
 21
57.40868735271242
 31
0.0
  0
LINE
  5
248
330
1F
100
AcDbEntity
  8
レイヤー 1
 62
     7
370
    13
100
AcDbLine
 10
290.3835150304694
 20
57.40868735271242
 30
0.0
 11
290.3411403560008
 21
57.40868735271242
 31
0.0
  0
LINE
  5
249
330
1F
100
AcDbEntity
  8
レイヤー 1
 62
     7
370
    13
100
AcDbLine
 10
290.3411403560008
 20
57.40868735271242
 30
0.0
 11
290.2987656815322
 21
57.40868735271242
 31
0.0
  0
LINE
  5
24A
330
1F
100
AcDbEntity
  8
レイヤー 1
 62
     7
370
    13
100
AcDbLine
 10
31.4305013148257
 20
108.8859931124125
 30
0.0
 11
30.83794489136272
 21
109.012944881044
 31
0.0
  0
LINE
  5
24B
330
1F
100
AcDbEntity
  8
レイヤー 1
 62
     7
370
    13
100
AcDbLine
 10
31.38829889513141
 20
108.8014160182496
 30
0.0
 11
30.83794489136272
 21
108.9283677868811
 31
0.0
  0
LINE
  5
24C
330
1F
100
AcDbEntity
  8
レイヤー 1
 62
     7
370
    13
100
AcDbLine
 10
70.08085530906936
 20
105.8803195563063
 30
0.0
 11
70.12322998353795
 21
105.8803195563063
 31
0.0
  0
LINE
  5
24D
330
1F
100
AcDbEntity
  8
レイヤー 1
 62
     7
370
    13
100
AcDbLine
 10
68.98031955630631
 20
106.0920206738749
 30
0.0
 11
70.08085530906936
 21
105.8803195563063
 31
0.0
  0
POINT
  5
24E
330
1F
100
AcDbEntity
  8
レイヤー 1
 62
     7
370
    13
100
AcDbPoint
 10
68.98031955630631
 20
106.1343953483435
 30
0.0
  0
LINE
  5
24F
330
1F
100
AcDbEntity
  8
レイヤー 1
 62
     7
370
    13
100
AcDbLine
 10
68.98031955630631
 20
106.1343953483435
 30
0.0
 11
68.98031955630631
 21
106.0920206738749
 31
0.0
  0
LINE
  5
250
330
1F
100
AcDbEntity
  8
レイヤー 1
 62
     7
370
    13
100
AcDbLine
 10
69.95390354043792
 20
107.0657769127808
 30
0.0
 11
68.98031955630631
 21
106.1343953483435
 31
0.0
  0
POINT
  5
251
330
1F
100
AcDbEntity
  8
レイヤー 1
 62
     7
370
    13
100
AcDbPoint
 10
69.99627821490648
 20
107.0657769127808
 30
0.0
  0
LINE
  5
252
330
1F
100
AcDbEntity
  8
レイヤー 1
 62
     7
370
    13
100
AcDbLine
 10
69.99627821490648
 20
107.0657769127808
 30
0.0
 11
69.95390354043792
 21
107.0657769127808
 31
0.0
  0
LINE
  5
253
330
1F
100
AcDbEntity
  8
レイヤー 1
 62
     7
370
    13
100
AcDbLine
 10
70.12322998353795
 20
105.8803195563063
 30
0.0
 11
69.99627821490648
 21
107.0657769127808
 31
0.0
  0
LINE
  5
254
330
1F
100
AcDbEntity
  8
レイヤー 1
 62
     7
370
    13
100
AcDbLine
 10
68.93794488183775
 20
106.1343953483435
 30
0.0
 11
69.95390354043792
 21
107.0657769127808
 31
0.0
  0
POINT
  5
255
330
1F
100
AcDbEntity
  8
レイヤー 1
 62
     7
370
    13
100
AcDbPoint
 10
69.95390354043792
 20
107.0657769127808
 30
0.0
  0
POINT
  5
256
330
1F
100
AcDbEntity
  8
レイヤー 1
 62
     7
370
    13
100
AcDbPoint
 10
68.98031955630631
 20
106.1343953483435
 30
0.0
  0
LINE
  5
257
330
1F
100
AcDbEntity
  8
レイヤー 1
 62
     7
370
    13
100
AcDbLine
 10
68.98031955630631
 20
106.1343953483435
 30
0.0
 11
68.93794488183775
 21
106.1343953483435
 31
0.0
  0
LINE
  5
258
330
1F
100
AcDbEntity
  8
レイヤー 1
 62
     7
370
    13
100
AcDbLine
 10
68.93794488183775
 20
106.1343953483435
 30
0.0
 11
68.93794488183775
 21
106.1765977680378
 31
0.0
  0
LINE
  5
259
330
1F
100
AcDbEntity
  8
レイヤー 1
 62
     7
370
    13
100
AcDbLine
 10
69.95390354043792
 20
107.1079793324751
 30
0.0
 11
68.93794488183775
 21
106.1765977680378
 31
0.0
  0
LINE
  5
25A
330
1F
100
AcDbEntity
  8
レイヤー 1
 62
     7
370
    13
100
AcDbLine
 10
69.95390354043792
 20
107.0657769127808
 30
0.0
 11
69.95390354043792
 21
107.1079793324751
 31
0.0
  0
POINT
  5
25B
330
1F
100
AcDbEntity
  8
レイヤー 1
 62
     7
370
    13
100
AcDbPoint
 10
69.91152886596933
 20
107.1079793324751
 30
0.0
  0
LINE
  5
25C
330
1F
100
AcDbEntity
  8
レイヤー 1
 62
     7
370
    13
100
AcDbLine
 10
69.91152886596933
 20
107.1079793324751
 30
0.0
 11
69.95390354043792
 21
107.1079793324751
 31
0.0
  0
POINT
  5
25D
330
1F
100
AcDbEntity
  8
レイヤー 1
 62
     7
370
    13
100
AcDbPoint
 10
68.93794488183775
 20
106.1765977680378
 30
0.0
  0
LINE
  5
25E
330
1F
100
AcDbEntity
  8
レイヤー 1
 62
     7
370
    13
100
AcDbLine
 10
256.7707519095324
 20
69.0079793420001
 30
0.0
 11
256.8131265840009
 21
69.0079793420001
 31
0.0
  0
LINE
  5
25F
330
1F
100
AcDbEntity
  8
レイヤー 1
 62
     7
370
    13
100
AcDbLine
 10
256.8131265840009
 20
69.0079793420001
 30
0.0
 11
256.8131265840009
 21
69.05035401646866
 31
0.0
  0
LINE
  5
260
330
1F
100
AcDbEntity
  8
レイヤー 1
 62
     7
370
    13
100
AcDbLine
 10
255.6703884115435
 20
69.21968045956869
 30
0.0
 11
256.7707519095324
 21
69.0079793420001
 31
0.0
  0
POINT
  5
261
330
1F
100
AcDbEntity
  8
レイヤー 1
 62
     7
370
    13
100
AcDbPoint
 10
255.6703884115435
 20
69.26205513403725
 30
0.0
  0
LINE
  5
262
330
1F
100
AcDbEntity
  8
レイヤー 1
 62
     7
370
    13
100
AcDbLine
 10
255.6703884115435
 20
69.26205513403725
 30
0.0
 11
255.6703884115435
 21
69.21968045956869
 31
0.0
  0
LINE
  5
263
330
1F
100
AcDbEntity
  8
レイヤー 1
 62
     7
370
    13
100
AcDbLine
 10
256.6863470701437
 20
70.1932644437003
 30
0.0
 11
255.6703884115435
 21
69.26205513403725
 31
0.0
  0
POINT
  5
264
330
1F
100
AcDbEntity
  8
レイヤー 1
 62
     7
370
    13
100
AcDbPoint
 10
256.7287217446123
 20
70.1932644437003
 30
0.0
  0
LINE
  5
265
330
1F
100
AcDbEntity
  8
レイヤー 1
 62
     7
370
    13
100
AcDbLine
 10
256.7287217446123
 20
70.1932644437003
 30
0.0
 11
256.6863470701437
 21
70.1932644437003
 31
0.0
  0
LINE
  5
266
330
1F
100
AcDbEntity
  8
レイヤー 1
 62
     7
370
    13
100
AcDbLine
 10
256.8131265840009
 20
69.05035401646866
 30
0.0
 11
256.7287217446123
 21
70.1932644437003
 31
0.0
  0
LINE
  5
267
330
1F
100
AcDbEntity
  8
レイヤー 1
 62
     7
370
    13
100
AcDbLine
 10
255.6703884115435
 20
69.30442980850584
 30
0.0
 11
256.6439723956751
 21
70.23563911816886
 31
0.0
  0
POINT
  5
268
330
1F
100
AcDbEntity
  8
レイヤー 1
 62
     7
370
    13
100
AcDbPoint
 10
256.6863470701437
 20
70.1932644437003
 30
0.0
  0
LINE
  5
269
330
1F
100
AcDbEntity
  8
レイヤー 1
 62
     7
370
    13
100
AcDbLine
 10
256.6863470701437
 20
70.1932644437003
 30
0.0
 11
256.6439723956751
 21
70.1932644437003
 31
0.0
  0
LINE
  5
26A
330
1F
100
AcDbEntity
  8
レイヤー 1
 62
     7
370
    13
100
AcDbLine
 10
256.6439723956751
 20
70.1932644437003
 30
0.0
 11
256.6439723956751
 21
70.23563911816886
 31
0.0
  0
POINT
  5
26B
330
1F
100
AcDbEntity
  8
レイヤー 1
 62
     7
370
    13
100
AcDbPoint
 10
255.6703884115435
 20
69.26205513403725
 30
0.0
  0
LINE
  5
26C
330
1F
100
AcDbEntity
  8
レイヤー 1
 62
     7
370
    13
100
AcDbLine
 10
255.6703884115435
 20
69.26205513403725
 30
0.0
 11
255.6703884115435
 21
69.30442980850584
 31
0.0
  0
LINE
  5
26D
330
1F
100
AcDbEntity
  8
レイヤー 1
 62
     7
370
    13
100
AcDbLine
 10
255.6703884115435
 20
69.30442980850584
 30
0.0
 11
255.6703884115435
 21
69.26205513403725
 31
0.0
  0
LINE
  5
26E
330
1F
100
AcDbEntity
  8
レイヤー 1
 62
     7
370
    13
100
AcDbLine
 10
256.6439723956751
 20
70.23563911816886
 30
0.0
 11
255.6703884115435
 21
69.30442980850584
 31
0.0
  0
LINE
  5
26F
330
1F
100
AcDbEntity
  8
レイヤー 1
 62
     7
370
    13
100
AcDbLine
 10
256.6439723956751
 20
70.23563911816886
 30
0.0
 11
256.6439723956751
 21
70.1932644437003
 31
0.0
  0
LINE
  5
270
330
1F
100
AcDbEntity
  8
レイヤー 1
 62
     7
370
    13
100
AcDbLine
 10
256.6015977212065
 20
70.23563911816886
 30
0.0
 11
256.6439723956751
 21
70.23563911816886
 31
0.0
  0
POINT
  5
271
330
1F
100
AcDbEntity
  8
レイヤー 1
 62
     7
370
    13
100
AcDbPoint
 10
255.628013737075
 20
69.30442980850584
 30
0.0
  0
LINE
  5
272
330
1F
100
AcDbEntity
  8
レイヤー 1
 62
     7
370
    13
100
AcDbLine
 10
255.628013737075
 20
69.30442980850584
 30
0.0
 11
255.6703884115435
 21
69.30442980850584
 31
0.0
  0
LINE
  5
273
330
1F
100
AcDbEntity
  8
レイヤー 1
 62
     7
370
    13
100
AcDbLine
 10
296.0138345820132
 20
63.46240913939342
 30
0.0
 11
296.5219861660876
 21
63.42003446492485
 31
0.0
  0
LINE
  5
274
330
1F
100
AcDbEntity
  8
レイヤー 1
 62
     7
370
    13
100
AcDbLine
 10
296.5219861660876
 20
63.42003446492485
 30
0.0
 11
297.2840412874248
 21
63.3352851159877
 31
0.0
  0
LINE
  5
275
330
1F
100
AcDbEntity
  8
レイヤー 1
 62
     7
370
    13
100
AcDbLine
 10
297.2840412874248
 20
63.3352851159877
 30
0.0
 11
298.0881265736821
 21
63.37765979045629
 31
0.0
  0
LINE
  5
276
330
1F
100
AcDbEntity
  8
レイヤー 1
 62
     7
370
    13
100
AcDbLine
 10
298.0881265736821
 20
63.37765979045629
 30
0.0
 11
298.8501816950194
 21
63.50461155908773
 31
0.0
  0
LINE
  5
277
330
1F
100
AcDbEntity
  8
レイヤー 1
 62
     7
370
    13
100
AcDbLine
 10
298.8501816950194
 20
63.50461155908773
 30
0.0
 11
299.6546114908252
 21
63.75868735112492
 31
0.0
  0
LINE
  5
278
330
1F
100
AcDbEntity
  8
レイヤー 1
 62
     7
370
    13
100
AcDbLine
 10
299.6546114908252
 20
63.75868735112492
 30
0.0
 11
300.4590412866311
 21
64.0549655628564
 31
0.0
  0
LINE
  5
279
330
1F
100
AcDbEntity
  8
レイヤー 1
 62
     7
370
    13
100
AcDbLine
 10
300.4590412866311
 20
64.0549655628564
 30
0.0
 11
301.2631265728884
 21
64.43599312352502
 31
0.0
  0
LINE
  5
27A
330
1F
100
AcDbEntity
  8
レイヤー 1
 62
     7
370
    13
100
AcDbLine
 10
301.2631265728884
 20
64.43599312352502
 30
0.0
 11
302.0675563686942
 21
64.94397245282512
 31
0.0
  0
LINE
  5
27B
330
1F
100
AcDbEntity
  8
レイヤー 1
 62
     7
370
    13
100
AcDbLine
 10
302.0675563686942
 20
64.94397245282512
 30
0.0
 11
302.4062092548943
 21
65.1980482448623
 31
0.0
  0
LINE
  5
27C
330
1F
100
AcDbEntity
  8
レイヤー 1
 62
     7
370
    13
100
AcDbLine
 10
297.8342230364192
 20
63.16595867288767
 30
0.0
 11
298.1305012481507
 21
63.12375625319338
 31
0.0
  0
LINE
  5
27D
330
1F
100
AcDbEntity
  8
レイヤー 1
 62
     7
370
    13
100
AcDbLine
 10
298.1305012481507
 20
63.12375625319338
 30
0.0
 11
298.892556369488
 21
63.08138157872479
 31
0.0
  0
LINE
  5
27E
330
1F
100
AcDbEntity
  8
レイヤー 1
 62
     7
370
    13
100
AcDbLine
 10
298.892556369488
 20
63.08138157872479
 30
0.0
 11
299.6969861652938
 21
63.12375625319338
 31
0.0
  0
LINE
  5
27F
330
1F
100
AcDbEntity
  8
レイヤー 1
 62
     7
370
    13
100
AcDbLine
 10
299.6969861652938
 20
63.12375625319338
 30
0.0
 11
300.4590412866311
 21
63.25070802182482
 31
0.0
  0
LINE
  5
280
330
1F
100
AcDbEntity
  8
レイヤー 1
 62
     7
370
    13
100
AcDbLine
 10
300.4590412866311
 20
63.25070802182482
 30
0.0
 11
301.2631265728884
 21
63.46240913939342
 31
0.0
  0
LINE
  5
281
330
1F
100
AcDbEntity
  8
レイヤー 1
 62
     7
370
    13
100
AcDbLine
 10
301.2631265728884
 20
63.46240913939342
 30
0.0
 11
302.0675563686942
 21
63.75868735112492
 31
0.0
  0
LINE
  5
282
330
1F
100
AcDbEntity
  8
レイヤー 1
 62
     7
370
    13
100
AcDbLine
 10
302.0675563686942
 20
63.75868735112492
 30
0.0
 11
302.8719861645001
 21
64.18191733148787
 31
0.0
  0
LINE
  5
283
330
1F
100
AcDbEntity
  8
レイヤー 1
 62
     7
370
    13
100
AcDbLine
 10
302.8719861645001
 20
64.18191733148787
 30
0.0
 11
303.6340412858373
 21
64.64769424109362
 31
0.0
  0
LINE
  5
284
330
1F
100
AcDbEntity
  8
レイヤー 1
 62
     7
370
    13
100
AcDbLine
 10
303.6340412858373
 20
64.64769424109362
 30
0.0
 11
303.9726941720374
 21
64.85939535866224
 31
0.0
  0
LINE
  5
285
330
1F
100
AcDbEntity
  8
レイヤー 1
 62
     7
370
    13
100
AcDbLine
 10
36.51063911737512
 20
115.6593953459622
 30
0.0
 11
36.51063911737512
 21
115.6170206714937
 31
0.0
  0
LINE
  5
286
330
1F
100
AcDbEntity
  8
レイヤー 1
 62
     7
370
    13
100
AcDbLine
 10
36.51063911737512
 20
115.6170206714937
 30
0.0
 11
36.51063911737512
 21
115.5746459970251
 31
0.0
  0
LINE
  5
287
330
1F
100
AcDbEntity
  8
レイヤー 1
 62
     7
370
    13
100
AcDbLine
 10
36.51063911737512
 20
115.5746459970251
 30
0.0
 11
36.55284153706944
 21
115.4900689028622
 31
0.0
  0
LINE
  5
288
330
1F
100
AcDbEntity
  8
レイヤー 1
 62
     7
370
    13
100
AcDbLine
 10
36.55284153706944
 20
115.4900689028622
 30
0.0
 11
36.55284153706944
 21
115.4476942283936
 31
0.0
  0
LINE
  5
289
330
1F
100
AcDbEntity
  8
レイヤー 1
 62
     7
370
    13
100
AcDbLine
 10
36.55284153706944
 20
115.4476942283936
 30
0.0
 11
36.595216211538
 21
115.4053195539251
 31
0.0
  0
LINE
  5
28A
330
1F
100
AcDbEntity
  8
レイヤー 1
 62
     7
370
    13
100
AcDbLine
 10
36.595216211538
 20
115.4053195539251
 30
0.0
 11
36.63759088600656
 21
115.3629448794565
 31
0.0
  0
LINE
  5
28B
330
1F
100
AcDbEntity
  8
レイヤー 1
 62
     7
370
    13
100
AcDbLine
 10
36.55284153706944
 20
116.5060275614624
 30
0.0
 11
36.51063911737512
 21
115.6593953459622
 31
0.0
  0
LINE
  5
28C
330
1F
100
AcDbEntity
  8
レイヤー 1
 62
     7
370
    13
100
AcDbLine
 10
36.8069173291066
 20
116.9294297965996
 30
0.0
 11
36.76454265463803
 21
116.9294297965996
 31
0.0
  0
LINE
  5
28D
330
1F
100
AcDbEntity
  8
レイヤー 1
 62
     7
370
    13
100
AcDbLine
 10
36.76454265463803
 20
116.9294297965996
 30
0.0
 11
36.67996556047515
 21
116.8446804476624
 31
0.0
  0
LINE
  5
28E
330
1F
100
AcDbEntity
  8
レイヤー 1
 62
     7
370
    13
100
AcDbLine
 10
36.67996556047515
 20
116.8446804476624
 30
0.0
 11
36.63759088600656
 21
116.8023057731939
 31
0.0
  0
LINE
  5
28F
330
1F
100
AcDbEntity
  8
レイヤー 1
 62
     7
370
    13
100
AcDbLine
 10
36.63759088600656
 20
116.8023057731939
 30
0.0
 11
36.595216211538
 21
116.7599310987253
 31
0.0
  0
LINE
  5
290
330
1F
100
AcDbEntity
  8
レイヤー 1
 62
     7
370
    13
100
AcDbLine
 10
36.595216211538
 20
116.7599310987253
 30
0.0
 11
36.595216211538
 21
116.6753540045624
 31
0.0
  0
LINE
  5
291
330
1F
100
AcDbEntity
  8
レイヤー 1
 62
     7
370
    13
100
AcDbLine
 10
36.595216211538
 20
116.6753540045624
 30
0.0
 11
36.55284153706944
 21
116.6329793300938
 31
0.0
  0
LINE
  5
292
330
1F
100
AcDbEntity
  8
レイヤー 1
 62
     7
370
    13
100
AcDbLine
 10
36.55284153706944
 20
116.6329793300938
 30
0.0
 11
36.55284153706944
 21
116.548402235931
 31
0.0
  0
LINE
  5
293
330
1F
100
AcDbEntity
  8
レイヤー 1
 62
     7
370
    13
100
AcDbLine
 10
36.55284153706944
 20
116.548402235931
 30
0.0
 11
36.55284153706944
 21
116.5060275614624
 31
0.0
  0
LINE
  5
294
330
1F
100
AcDbEntity
  8
レイヤー 1
 62
     7
370
    13
100
AcDbLine
 10
47.94060466356277
 20
120.0620551213373
 30
0.0
 11
36.8069173291066
 21
116.9294297965996
 31
0.0
  0
LINE
  5
295
330
1F
100
AcDbEntity
  8
レイヤー 1
 62
     7
370
    13
100
AcDbLine
 10
48.19450820082568
 20
119.7234022351372
 30
0.0
 11
48.19450820082568
 21
119.8079793293001
 31
0.0
  0
LINE
  5
296
330
1F
100
AcDbEntity
  8
レイヤー 1
 62
     7
370
    13
100
AcDbLine
 10
48.19450820082568
 20
119.8079793293001
 30
0.0
 11
48.15230578113136
 21
119.8927286782372
 31
0.0
  0
LINE
  5
297
330
1F
100
AcDbEntity
  8
レイヤー 1
 62
     7
370
    13
100
AcDbLine
 10
48.15230578113136
 20
119.8927286782372
 30
0.0
 11
48.15230578113136
 21
119.9349310979315
 31
0.0
  0
LINE
  5
298
330
1F
100
AcDbEntity
  8
レイヤー 1
 62
     7
370
    13
100
AcDbLine
 10
48.15230578113136
 20
119.9349310979315
 30
0.0
 11
48.1099311066628
 21
119.9773057724001
 31
0.0
  0
LINE
  5
299
330
1F
100
AcDbEntity
  8
レイヤー 1
 62
     7
370
    13
100
AcDbLine
 10
48.1099311066628
 20
119.9773057724001
 30
0.0
 11
48.06755643219424
 21
120.0196804468687
 31
0.0
  0
LINE
  5
29A
330
1F
100
AcDbEntity
  8
レイヤー 1
 62
     7
370
    13
100
AcDbLine
 10
48.06755643219424
 20
120.0196804468687
 30
0.0
 11
48.06755643219424
 21
120.0620551213373
 31
0.0
  0
LINE
  5
29B
330
1F
100
AcDbEntity
  8
レイヤー 1
 62
     7
370
    13
100
AcDbLine
 10
48.06755643219424
 20
120.0620551213373
 30
0.0
 11
47.98297933803133
 21
120.0620551213373
 31
0.0
  0
LINE
  5
29C
330
1F
100
AcDbEntity
  8
レイヤー 1
 62
     7
370
    13
100
AcDbLine
 10
47.98297933803133
 20
120.0620551213373
 30
0.0
 11
47.94060466356277
 21
120.0620551213373
 31
0.0
  0
LINE
  5
29D
330
1F
100
AcDbEntity
  8
レイヤー 1
 62
     7
370
    13
100
AcDbLine
 10
48.15230578113136
 20
118.9189724393314
 30
0.0
 11
48.19450820082568
 21
119.7234022351372
 31
0.0
  0
LINE
  5
29E
330
1F
100
AcDbEntity
  8
レイヤー 1
 62
     7
370
    13
100
AcDbLine
 10
48.02518175772565
 20
118.5379448786627
 30
0.0
 11
48.06755643219424
 21
118.6226942275999
 31
0.0
  0
LINE
  5
29F
330
1F
100
AcDbEntity
  8
レイヤー 1
 62
     7
370
    13
100
AcDbLine
 10
48.06755643219424
 20
118.6226942275999
 30
0.0
 11
48.1099311066628
 21
118.6650689020685
 31
0.0
  0
LINE
  5
2A0
330
1F
100
AcDbEntity
  8
レイヤー 1
 62
     7
370
    13
100
AcDbLine
 10
48.1099311066628
 20
118.6650689020685
 30
0.0
 11
48.1099311066628
 21
118.7496459962313
 31
0.0
  0
LINE
  5
2A1
330
1F
100
AcDbEntity
  8
レイヤー 1
 62
     7
370
    13
100
AcDbLine
 10
48.1099311066628
 20
118.7496459962313
 30
0.0
 11
48.15230578113136
 21
118.8343953451685
 31
0.0
  0
LINE
  5
2A2
330
1F
100
AcDbEntity
  8
レイヤー 1
 62
     7
370
    13
100
AcDbLine
 10
48.15230578113136
 20
118.8343953451685
 30
0.0
 11
48.15230578113136
 21
118.9189724393314
 31
0.0
  0
POINT
  5
2A3
330
1F
100
AcDbEntity
  8
レイヤー 1
 62
     7
370
    13
100
AcDbPoint
 10
38.75425755214408
 20
114.3893608953249
 30
0.0
  0
LINE
  5
2A4
330
1F
100
AcDbEntity
  8
レイヤー 1
 62
     7
370
    13
100
AcDbLine
 10
38.75425755214408
 20
114.3893608953249
 30
0.0
 11
39.51631267348134
 21
114.2624091266934
 31
0.0
  0
LINE
  5
2A5
330
1F
100
AcDbEntity
  8
レイヤー 1
 62
     7
370
    13
100
AcDbLine
 10
39.51631267348134
 20
114.2624091266934
 30
0.0
 11
40.27819554004435
 21
114.2200344522249
 31
0.0
  0
LINE
  5
2A6
330
1F
100
AcDbEntity
  8
レイヤー 1
 62
     7
370
    13
100
AcDbLine
 10
40.27819554004435
 20
114.2200344522249
 30
0.0
 11
41.04025066138161
 21
114.2624091266934
 31
0.0
  0
LINE
  5
2A7
330
1F
100
AcDbEntity
  8
レイヤー 1
 62
     7
370
    13
100
AcDbLine
 10
41.04025066138161
 20
114.2624091266934
 30
0.0
 11
41.84450820241318
 21
114.3893608953249
 31
0.0
  0
LINE
  5
2A8
330
1F
100
AcDbEntity
  8
レイヤー 1
 62
     7
370
    13
100
AcDbLine
 10
41.84450820241318
 20
114.3893608953249
 30
0.0
 11
42.64893799821903
 21
114.6010620128935
 31
0.0
  0
LINE
  5
2A9
330
1F
100
AcDbEntity
  8
レイヤー 1
 62
     7
370
    13
100
AcDbLine
 10
42.64893799821903
 20
114.6010620128935
 30
0.0
 11
43.4531955392506
 21
114.897340224625
 31
0.0
  0
LINE
  5
2AA
330
1F
100
AcDbEntity
  8
レイヤー 1
 62
     7
370
    13
100
AcDbLine
 10
43.4531955392506
 20
114.897340224625
 30
0.0
 11
44.21525066058786
 21
115.3207424597622
 31
0.0
  0
LINE
  5
2AB
330
1F
100
AcDbEntity
  8
レイヤー 1
 62
     7
370
    13
100
AcDbLine
 10
44.21525066058786
 20
115.3207424597622
 30
0.0
 11
45.01950820161943
 21
115.7863471145937
 31
0.0
  0
LINE
  5
2AC
330
1F
100
AcDbEntity
  8
レイヤー 1
 62
     7
370
    13
100
AcDbLine
 10
45.01950820161943
 20
115.7863471145937
 30
0.0
 11
45.78156332295669
 21
116.3790757928309
 31
0.0
  0
LINE
  5
2AD
330
1F
100
AcDbEntity
  8
レイヤー 1
 62
     7
370
    13
100
AcDbLine
 10
45.78156332295669
 20
116.3790757928309
 30
0.0
 11
46.54361844429397
 21
117.0140068907625
 31
0.0
  0
LINE
  5
2AE
330
1F
100
AcDbEntity
  8
レイヤー 1
 62
     7
370
    13
100
AcDbLine
 10
46.54361844429397
 20
117.0140068907625
 30
0.0
 11
47.30550131085695
 21
117.7336873376312
 31
0.0
  0
LINE
  5
2AF
330
1F
100
AcDbEntity
  8
レイヤー 1
 62
     7
370
    13
100
AcDbLine
 10
47.30550131085695
 20
117.7336873376312
 30
0.0
 11
48.02518175772565
 21
118.5379448786627
 31
0.0
  0
LINE
  5
2B0
330
1F
100
AcDbEntity
  8
レイヤー 1
 62
     7
370
    13
100
AcDbLine
 10
48.02518175772565
 20
118.5379448786627
 30
0.0
 11
48.02518175772565
 21
118.4957424589684
 31
0.0
  0
LINE
  5
2B1
330
1F
100
AcDbEntity
  8
レイヤー 1
 62
     7
370
    13
100
AcDbLine
 10
48.02518175772565
 20
118.4957424589684
 30
0.0
 11
48.06755643219424
 21
118.4957424589684
 31
0.0
  0
LINE
  5
2B2
330
1F
100
AcDbEntity
  8
レイヤー 1
 62
     7
370
    13
100
AcDbLine
 10
48.06755643219424
 20
118.4957424589684
 30
0.0
 11
48.1099311066628
 21
118.4533677844999
 31
0.0
  0
LINE
  5
2B3
330
1F
100
AcDbEntity
  8
レイヤー 1
 62
     7
370
    13
100
AcDbLine
 10
48.1099311066628
 20
118.4533677844999
 30
0.0
 11
47.39025065979411
 21
117.6491102434683
 31
0.0
  0
LINE
  5
2B4
330
1F
100
AcDbEntity
  8
レイヤー 1
 62
     7
370
    13
100
AcDbLine
 10
47.39025065979411
 20
117.6491102434683
 30
0.0
 11
46.62819553845685
 21
116.9294297965996
 31
0.0
  0
LINE
  5
2B5
330
1F
100
AcDbEntity
  8
レイヤー 1
 62
     7
370
    13
100
AcDbLine
 10
46.62819553845685
 20
116.9294297965996
 30
0.0
 11
45.86631267189384
 21
116.2943264438938
 31
0.0
  0
LINE
  5
2B6
330
1F
100
AcDbEntity
  8
レイヤー 1
 62
     7
370
    13
100
AcDbLine
 10
45.86631267189384
 20
116.2943264438938
 30
0.0
 11
45.06188287608799
 21
115.7015977656566
 31
0.0
  0
LINE
  5
2B7
330
1F
100
AcDbEntity
  8
レイヤー 1
 62
     7
370
    13
100
AcDbLine
 10
45.06188287608799
 20
115.7015977656566
 30
0.0
 11
44.29982775475074
 21
115.235993110825
 31
0.0
  0
LINE
  5
2B8
330
1F
100
AcDbEntity
  8
レイヤー 1
 62
     7
370
    13
100
AcDbLine
 10
44.29982775475074
 20
115.235993110825
 30
0.0
 11
43.49557021371916
 21
114.8127631304621
 31
0.0
  0
LINE
  5
2B9
330
1F
100
AcDbEntity
  8
レイヤー 1
 62
     7
370
    13
100
AcDbLine
 10
43.49557021371916
 20
114.8127631304621
 30
0.0
 11
42.69131267268759
 21
114.5163126639563
 31
0.0
  0
LINE
  5
2BA
330
1F
100
AcDbEntity
  8
レイヤー 1
 62
     7
370
    13
100
AcDbLine
 10
42.69131267268759
 20
114.5163126639563
 30
0.0
 11
41.88688287688174
 21
114.3046115463877
 31
0.0
  0
LINE
  5
2BB
330
1F
100
AcDbEntity
  8
レイヤー 1
 62
     7
370
    13
100
AcDbLine
 10
41.88688287688174
 20
114.3046115463877
 30
0.0
 11
41.12482775554449
 21
114.1352851032877
 31
0.0
  0
LINE
  5
2BC
330
1F
100
AcDbEntity
  8
レイヤー 1
 62
     7
370
    13
100
AcDbLine
 10
41.12482775554449
 20
114.1352851032877
 30
0.0
 11
40.32057021451291
 21
114.1352851032877
 31
0.0
  0
LINE
  5
2BD
330
1F
100
AcDbEntity
  8
レイヤー 1
 62
     7
370
    13
100
AcDbLine
 10
40.32057021451291
 20
114.1352851032877
 30
0.0
 11
39.55851509317566
 21
114.1776597777563
 31
0.0
  0
LINE
  5
2BE
330
1F
100
AcDbEntity
  8
レイヤー 1
 62
     7
370
    13
100
AcDbLine
 10
39.55851509317566
 20
114.1776597777563
 30
0.0
 11
38.79663222661264
 21
114.3046115463877
 31
0.0
  0
LINE
  5
2BF
330
1F
100
AcDbEntity
  8
レイヤー 1
 62
     7
370
    13
100
AcDbLine
 10
38.79663222661264
 20
114.3046115463877
 30
0.0
 11
38.07695177974395
 21
114.5586873384249
 31
0.0
  0
LINE
  5
2C0
330
1F
100
AcDbEntity
  8
レイヤー 1
 62
     7
370
    13
100
AcDbLine
 10
38.07695177974395
 20
114.5586873384249
 30
0.0
 11
37.35727133287526
 21
114.8549655501564
 31
0.0
  0
LINE
  5
2C1
330
1F
100
AcDbEntity
  8
レイヤー 1
 62
     7
370
    13
100
AcDbLine
 10
37.35727133287526
 20
114.8549655501564
 30
0.0
 11
36.67996556047515
 21
115.2783677852936
 31
0.0
  0
LINE
  5
2C2
330
1F
100
AcDbEntity
  8
レイヤー 1
 62
     7
370
    13
100
AcDbLine
 10
49.71861844350022
 20
118.1147148982998
 30
0.0
 11
48.99893799663153
 21
117.3102851024939
 31
0.0
  0
LINE
  5
2C3
330
1F
100
AcDbEntity
  8
レイヤー 1
 62
     7
370
    13
100
AcDbLine
 10
48.99893799663153
 20
117.3102851024939
 30
0.0
 11
48.23688287529424
 21
116.5907769103995
 31
0.0
  0
LINE
  5
2C4
330
1F
100
AcDbEntity
  8
レイヤー 1
 62
     7
370
    13
100
AcDbLine
 10
48.23688287529424
 20
116.5907769103995
 30
0.0
 11
47.47482775395699
 21
115.9132988832252
 31
0.0
  0
LINE
  5
2C5
330
1F
100
AcDbEntity
  8
レイヤー 1
 62
     7
370
    13
100
AcDbLine
 10
47.47482775395699
 20
115.9132988832252
 30
0.0
 11
46.67057021292541
 21
115.3629448794565
 31
0.0
  0
LINE
  5
2C6
330
1F
100
AcDbEntity
  8
レイヤー 1
 62
     7
370
    13
100
AcDbLine
 10
46.67057021292541
 20
115.3629448794565
 30
0.0
 11
45.90851509158816
 21
114.8549655501564
 31
0.0
  0
LINE
  5
2C7
330
1F
100
AcDbEntity
  8
レイヤー 1
 62
     7
370
    13
100
AcDbLine
 10
45.90851509158816
 20
114.8549655501564
 30
0.0
 11
45.10425755055658
 21
114.474110244262
 31
0.0
  0
LINE
  5
2C8
330
1F
100
AcDbEntity
  8
レイヤー 1
 62
     7
370
    13
100
AcDbLine
 10
45.10425755055658
 20
114.474110244262
 30
0.0
 11
44.29982775475074
 21
114.1776597777563
 31
0.0
  0
LINE
  5
2C9
330
1F
100
AcDbEntity
  8
レイヤー 1
 62
     7
370
    13
100
AcDbLine
 10
44.29982775475074
 20
114.1776597777563
 30
0.0
 11
43.49557021371916
 21
113.9235839857191
 31
0.0
  0
LINE
  5
2CA
330
1F
100
AcDbEntity
  8
レイヤー 1
 62
     7
370
    13
100
AcDbLine
 10
43.49557021371916
 20
113.9235839857191
 30
0.0
 11
42.69131267268759
 21
113.7966322170877
 31
0.0
  0
LINE
  5
2CB
330
1F
100
AcDbEntity
  8
レイヤー 1
 62
     7
370
    13
100
AcDbLine
 10
42.69131267268759
 20
113.7966322170877
 30
0.0
 11
41.92925755135033
 21
113.7544297973933
 31
0.0
  0
LINE
  5
2CC
330
1F
100
AcDbEntity
  8
レイヤー 1
 62
     7
370
    13
100
AcDbLine
 10
41.92925755135033
 20
113.7544297973933
 30
0.0
 11
41.16720243001305
 21
113.7966322170877
 31
0.0
  0
LINE
  5
2CD
330
1F
100
AcDbEntity
  8
レイヤー 1
 62
     7
370
    13
100
AcDbLine
 10
41.16720243001305
 20
113.7966322170877
 30
0.0
 11
40.5746460065501
 21
113.9235839857191
 31
0.0
  0
LINE
  5
2CE
330
1F
100
AcDbEntity
  8
レイヤー 1
 62
     7
370
    13
100
AcDbLine
 10
48.1099311066628
 20
118.4533677844999
 30
0.0
 11
49.71861844350022
 21
118.1147148982998
 31
0.0
  0
LINE
  5
2CF
330
1F
100
AcDbEntity
  8
レイヤー 1
 62
     7
370
    13
100
AcDbLine
 10
48.27925754976283
 20
118.9189724393314
 30
0.0
 11
48.23688287529424
 21
118.9189724393314
 31
0.0
  0
LINE
  5
2D0
330
1F
100
AcDbEntity
  8
レイヤー 1
 62
     7
370
    13
100
AcDbLine
 10
48.23688287529424
 20
118.9189724393314
 30
0.0
 11
48.19450820082568
 21
118.9189724393314
 31
0.0
  0
LINE
  5
2D1
330
1F
100
AcDbEntity
  8
レイヤー 1
 62
     7
370
    13
100
AcDbLine
 10
48.19450820082568
 20
118.9189724393314
 30
0.0
 11
48.15230578113136
 21
118.9189724393314
 31
0.0
  0
LINE
  5
2D2
330
1F
100
AcDbEntity
  8
レイヤー 1
 62
     7
370
    13
100
AcDbLine
 10
48.1099311066628
 20
118.4533677844999
 30
0.0
 11
48.15230578113136
 21
118.5379448786627
 31
0.0
  0
LINE
  5
2D3
330
1F
100
AcDbEntity
  8
レイヤー 1
 62
     7
370
    13
100
AcDbLine
 10
48.15230578113136
 20
118.5379448786627
 30
0.0
 11
48.19450820082568
 21
118.6226942275999
 31
0.0
  0
LINE
  5
2D4
330
1F
100
AcDbEntity
  8
レイヤー 1
 62
     7
370
    13
100
AcDbLine
 10
48.19450820082568
 20
118.6226942275999
 30
0.0
 11
48.23688287529424
 21
118.6650689020685
 31
0.0
  0
LINE
  5
2D5
330
1F
100
AcDbEntity
  8
レイヤー 1
 62
     7
370
    13
100
AcDbLine
 10
48.23688287529424
 20
118.6650689020685
 30
0.0
 11
48.23688287529424
 21
118.7496459962313
 31
0.0
  0
LINE
  5
2D6
330
1F
100
AcDbEntity
  8
レイヤー 1
 62
     7
370
    13
100
AcDbLine
 10
48.23688287529424
 20
118.7496459962313
 30
0.0
 11
48.23688287529424
 21
118.8343953451685
 31
0.0
  0
LINE
  5
2D7
330
1F
100
AcDbEntity
  8
レイヤー 1
 62
     7
370
    13
100
AcDbLine
 10
48.23688287529424
 20
118.8343953451685
 30
0.0
 11
48.27925754976283
 21
118.9189724393314
 31
0.0
  0
LINE
  5
2D8
330
1F
100
AcDbEntity
  8
レイヤー 1
 62
     7
370
    13
100
AcDbLine
 10
49.71861844350022
 20
118.1147148982998
 30
0.0
 11
49.76082086319451
 21
118.1992919924627
 31
0.0
  0
LINE
  5
2D9
330
1F
100
AcDbEntity
  8
レイヤー 1
 62
     7
370
    13
100
AcDbLine
 10
49.76082086319451
 20
118.1992919924627
 30
0.0
 11
49.8031955376631
 21
118.2840413413998
 31
0.0
  0
LINE
  5
2DA
330
1F
100
AcDbEntity
  8
レイヤー 1
 62
     7
370
    13
100
AcDbLine
 10
49.8031955376631
 20
118.2840413413998
 30
0.0
 11
49.84557021213166
 21
118.3686184355627
 31
0.0
  0
LINE
  5
2DB
330
1F
100
AcDbEntity
  8
レイヤー 1
 62
     7
370
    13
100
AcDbLine
 10
49.84557021213166
 20
118.3686184355627
 30
0.0
 11
49.84557021213166
 21
118.4533677844999
 31
0.0
  0
LINE
  5
2DC
330
1F
100
AcDbEntity
  8
レイヤー 1
 62
     7
370
    13
100
AcDbLine
 10
49.84557021213166
 20
118.4533677844999
 30
0.0
 11
49.88794488660025
 21
118.4957424589684
 31
0.0
  0
LINE
  5
2DD
330
1F
100
AcDbEntity
  8
レイヤー 1
 62
     7
370
    13
100
AcDbLine
 10
49.88794488660025
 20
118.4957424589684
 30
0.0
 11
49.88794488660025
 21
118.6226942275999
 31
0.0
  0
LINE
  5
2DE
330
1F
100
AcDbEntity
  8
レイヤー 1
 62
     7
370
    13
100
AcDbLine
 10
48.27925754976283
 20
118.9189724393314
 30
0.0
 11
49.88794488660025
 21
118.6226942275999
 31
0.0
  0
LINE
  5
2DF
330
1F
100
AcDbEntity
  8
レイヤー 1
 62
     7
370
    13
100
AcDbLine
 10
48.27925754976283
 20
119.7234022351372
 30
0.0
 11
48.27925754976283
 21
118.9189724393314
 31
0.0
  0
LINE
  5
2E0
330
1F
100
AcDbEntity
  8
レイヤー 1
 62
     7
370
    13
100
AcDbLine
 10
48.27925754976283
 20
119.7234022351372
 30
0.0
 11
48.23688287529424
 21
119.7234022351372
 31
0.0
  0
LINE
  5
2E1
330
1F
100
AcDbEntity
  8
レイヤー 1
 62
     7
370
    13
100
AcDbLine
 10
48.23688287529424
 20
119.7234022351372
 30
0.0
 11
48.19450820082568
 21
119.7234022351372
 31
0.0
  0
LINE
  5
2E2
330
1F
100
AcDbEntity
  8
レイヤー 1
 62
     7
370
    13
100
AcDbLine
 10
49.88794488660025
 20
119.4269517686315
 30
0.0
 11
49.88794488660025
 21
118.6226942275999
 31
0.0
  0
LINE
  5
2E3
330
1F
100
AcDbEntity
  8
レイヤー 1
 62
     7
370
    13
100
AcDbLine
 10
48.27925754976283
 20
119.7234022351372
 30
0.0
 11
49.88794488660025
 21
119.4269517686315
 31
0.0
  0
LINE
  5
2E4
330
1F
100
AcDbEntity
  8
レイヤー 1
 62
     7
370
    13
100
AcDbLine
 10
48.02518175772565
 20
120.1044297958058
 30
0.0
 11
48.06755643219424
 21
120.1466322155002
 31
0.0
  0
LINE
  5
2E5
330
1F
100
AcDbEntity
  8
レイヤー 1
 62
     7
370
    13
100
AcDbLine
 10
48.06755643219424
 20
120.1466322155002
 30
0.0
 11
48.1099311066628
 21
120.1044297958058
 31
0.0
  0
POINT
  5
2E6
330
1F
100
AcDbEntity
  8
レイヤー 1
 62
     7
370
    13
100
AcDbPoint
 10
48.02518175772565
 20
120.1044297958058
 30
0.0
  0
LINE
  5
2E7
330
1F
100
AcDbEntity
  8
レイヤー 1
 62
     7
370
    13
100
AcDbLine
 10
48.02518175772565
 20
120.1044297958058
 30
0.0
 11
47.98297933803133
 21
120.1044297958058
 31
0.0
  0
POINT
  5
2E8
330
1F
100
AcDbEntity
  8
レイヤー 1
 62
     7
370
    13
100
AcDbPoint
 10
49.71861844350022
 20
119.8503540037687
 30
0.0
  0
LINE
  5
2E9
330
1F
100
AcDbEntity
  8
レイヤー 1
 62
     7
370
    13
100
AcDbLine
 10
49.71861844350022
 20
119.8503540037687
 30
0.0
 11
49.8031955376631
 21
119.8079793293001
 31
0.0
  0
LINE
  5
2EA
330
1F
100
AcDbEntity
  8
レイヤー 1
 62
     7
370
    13
100
AcDbLine
 10
49.8031955376631
 20
119.8079793293001
 30
0.0
 11
49.84557021213166
 21
119.7657769096058
 31
0.0
  0
LINE
  5
2EB
330
1F
100
AcDbEntity
  8
レイヤー 1
 62
     7
370
    13
100
AcDbLine
 10
49.84557021213166
 20
119.7657769096058
 30
0.0
 11
49.84557021213166
 21
119.6810275606686
 31
0.0
  0
LINE
  5
2EC
330
1F
100
AcDbEntity
  8
レイヤー 1
 62
     7
370
    13
100
AcDbLine
 10
49.84557021213166
 20
119.6810275606686
 30
0.0
 11
49.88794488660025
 21
119.5962782117315
 31
0.0
  0
LINE
  5
2ED
330
1F
100
AcDbEntity
  8
レイヤー 1
 62
     7
370
    13
100
AcDbLine
 10
49.88794488660025
 20
119.5962782117315
 30
0.0
 11
49.88794488660025
 21
119.5117011175686
 31
0.0
  0
LINE
  5
2EE
330
1F
100
AcDbEntity
  8
レイヤー 1
 62
     7
370
    13
100
AcDbLine
 10
49.88794488660025
 20
119.5117011175686
 30
0.0
 11
49.88794488660025
 21
119.4269517686315
 31
0.0
  0
LINE
  5
2EF
330
1F
100
AcDbEntity
  8
レイヤー 1
 62
     7
370
    13
100
AcDbLine
 10
50.01489665523169
 20
119.8503540037687
 30
0.0
 11
50.01489665523169
 21
119.7657769096058
 31
0.0
  0
LINE
  5
2F0
330
1F
100
AcDbEntity
  8
レイヤー 1
 62
     7
370
    13
100
AcDbLine
 10
41.37890354758167
 20
121.543618434769
 30
0.0
 11
41.33652887311308
 21
121.5014160150746
 31
0.0
  0
POINT
  5
2F1
330
1F
100
AcDbEntity
  8
レイヤー 1
 62
     7
370
    13
100
AcDbPoint
 10
36.51063911737512
 20
115.6593953459622
 30
0.0
  0
POINT
  5
2F2
330
1F
100
AcDbEntity
  8
レイヤー 1
 62
     7
370
    13
100
AcDbPoint
 10
36.55284153706944
 20
116.5060275614624
 30
0.0
  0
LINE
  5
2F3
330
1F
100
AcDbEntity
  8
レイヤー 1
 62
     7
370
    13
100
AcDbLine
 10
36.55284153706944
 20
116.5060275614624
 30
0.0
 11
36.55284153706944
 21
116.4636528869938
 31
0.0
  0
LINE
  5
2F4
330
1F
100
AcDbEntity
  8
レイヤー 1
 62
     7
370
    13
100
AcDbLine
 10
49.88794488660025
 20
119.4269517686315
 30
0.0
 11
49.88794488660025
 21
119.5117011175686
 31
0.0
  0
LINE
  5
2F5
330
1F
100
AcDbEntity
  8
レイヤー 1
 62
     7
370
    13
100
AcDbLine
 10
49.88794488660025
 20
119.5117011175686
 30
0.0
 11
49.88794488660025
 21
119.5962782117315
 31
0.0
  0
LINE
  5
2F6
330
1F
100
AcDbEntity
  8
レイヤー 1
 62
     7
370
    13
100
AcDbLine
 10
49.88794488660025
 20
119.5962782117315
 30
0.0
 11
49.84557021213166
 21
119.6810275606686
 31
0.0
  0
LINE
  5
2F7
330
1F
100
AcDbEntity
  8
レイヤー 1
 62
     7
370
    13
100
AcDbLine
 10
49.84557021213166
 20
119.6810275606686
 30
0.0
 11
49.84557021213166
 21
119.7657769096058
 31
0.0
  0
LINE
  5
2F8
330
1F
100
AcDbEntity
  8
レイヤー 1
 62
     7
370
    13
100
AcDbLine
 10
49.84557021213166
 20
119.7657769096058
 30
0.0
 11
49.8031955376631
 21
119.8079793293001
 31
0.0
  0
LINE
  5
2F9
330
1F
100
AcDbEntity
  8
レイヤー 1
 62
     7
370
    13
100
AcDbLine
 10
49.8031955376631
 20
119.8079793293001
 30
0.0
 11
49.71861844350022
 21
119.8503540037687
 31
0.0
  0
LINE
  5
2FA
330
1F
100
AcDbEntity
  8
レイヤー 1
 62
     7
370
    13
100
AcDbLine
 10
49.88794488660025
 20
118.6226942275999
 30
0.0
 11
49.88794488660025
 21
119.4269517686315
 31
0.0
  0
LINE
  5
2FB
330
1F
100
AcDbEntity
  8
レイヤー 1
 62
     7
370
    13
100
AcDbLine
 10
49.71861844350022
 20
118.1147148982998
 30
0.0
 11
49.76082086319451
 21
118.1992919924627
 31
0.0
  0
LINE
  5
2FC
330
1F
100
AcDbEntity
  8
レイヤー 1
 62
     7
370
    13
100
AcDbLine
 10
49.76082086319451
 20
118.1992919924627
 30
0.0
 11
49.8031955376631
 21
118.2840413413998
 31
0.0
  0
LINE
  5
2FD
330
1F
100
AcDbEntity
  8
レイヤー 1
 62
     7
370
    13
100
AcDbLine
 10
49.8031955376631
 20
118.2840413413998
 30
0.0
 11
49.84557021213166
 21
118.3686184355627
 31
0.0
  0
LINE
  5
2FE
330
1F
100
AcDbEntity
  8
レイヤー 1
 62
     7
370
    13
100
AcDbLine
 10
49.84557021213166
 20
118.3686184355627
 30
0.0
 11
49.84557021213166
 21
118.4533677844999
 31
0.0
  0
LINE
  5
2FF
330
1F
100
AcDbEntity
  8
レイヤー 1
 62
     7
370
    13
100
AcDbLine
 10
49.84557021213166
 20
118.4533677844999
 30
0.0
 11
49.88794488660025
 21
118.5379448786627
 31
0.0
  0
LINE
  5
300
330
1F
100
AcDbEntity
  8
レイヤー 1
 62
     7
370
    13
100
AcDbLine
 10
49.88794488660025
 20
118.5379448786627
 30
0.0
 11
49.88794488660025
 21
118.6226942275999
 31
0.0
  0
LINE
  5
301
330
1F
100
AcDbEntity
  8
レイヤー 1
 62
     7
370
    13
100
AcDbLine
 10
49.71861844350022
 20
118.1147148982998
 30
0.0
 11
48.99893799663153
 21
117.3102851024939
 31
0.0
  0
LINE
  5
302
330
1F
100
AcDbEntity
  8
レイヤー 1
 62
     7
370
    13
100
AcDbLine
 10
48.99893799663153
 20
117.3102851024939
 30
0.0
 11
48.23688287529424
 21
116.5907769103995
 31
0.0
  0
LINE
  5
303
330
1F
100
AcDbEntity
  8
レイヤー 1
 62
     7
370
    13
100
AcDbLine
 10
48.23688287529424
 20
116.5907769103995
 30
0.0
 11
47.47482775395699
 21
115.9132988832252
 31
0.0
  0
LINE
  5
304
330
1F
100
AcDbEntity
  8
レイヤー 1
 62
     7
370
    13
100
AcDbLine
 10
47.47482775395699
 20
115.9132988832252
 30
0.0
 11
46.67057021292541
 21
115.3629448794565
 31
0.0
  0
LINE
  5
305
330
1F
100
AcDbEntity
  8
レイヤー 1
 62
     7
370
    13
100
AcDbLine
 10
46.67057021292541
 20
115.3629448794565
 30
0.0
 11
45.90851509158816
 21
114.8549655501564
 31
0.0
  0
LINE
  5
306
330
1F
100
AcDbEntity
  8
レイヤー 1
 62
     7
370
    13
100
AcDbLine
 10
45.90851509158816
 20
114.8549655501564
 30
0.0
 11
45.10425755055658
 21
114.474110244262
 31
0.0
  0
LINE
  5
307
330
1F
100
AcDbEntity
  8
レイヤー 1
 62
     7
370
    13
100
AcDbLine
 10
45.10425755055658
 20
114.474110244262
 30
0.0
 11
44.29982775475074
 21
114.1776597777563
 31
0.0
  0
LINE
  5
308
330
1F
100
AcDbEntity
  8
レイヤー 1
 62
     7
370
    13
100
AcDbLine
 10
44.29982775475074
 20
114.1776597777563
 30
0.0
 11
43.49557021371916
 21
113.9235839857191
 31
0.0
  0
LINE
  5
309
330
1F
100
AcDbEntity
  8
レイヤー 1
 62
     7
370
    13
100
AcDbLine
 10
43.49557021371916
 20
113.9235839857191
 30
0.0
 11
42.69131267268759
 21
113.7966322170877
 31
0.0
  0
LINE
  5
30A
330
1F
100
AcDbEntity
  8
レイヤー 1
 62
     7
370
    13
100
AcDbLine
 10
42.69131267268759
 20
113.7966322170877
 30
0.0
 11
41.92925755135033
 21
113.7544297973933
 31
0.0
  0
LINE
  5
30B
330
1F
100
AcDbEntity
  8
レイヤー 1
 62
     7
370
    13
100
AcDbLine
 10
41.92925755135033
 20
113.7544297973933
 30
0.0
 11
41.16720243001305
 21
113.8390068915562
 31
0.0
  0
LINE
  5
30C
330
1F
100
AcDbEntity
  8
レイヤー 1
 62
     7
370
    13
100
AcDbLine
 10
41.16720243001305
 20
113.8390068915562
 30
0.0
 11
40.70159777518154
 21
113.8813815660248
 31
0.0
  0
LINE
  5
30D
330
1F
100
AcDbEntity
  8
レイヤー 1
 62
     7
370
    13
100
AcDbLine
 10
302.4062092548943
 20
65.1980482448623
 30
0.0
 11
302.0675563686942
 21
64.94397245282512
 31
0.0
  0
LINE
  5
30E
330
1F
100
AcDbEntity
  8
レイヤー 1
 62
     7
370
    13
100
AcDbLine
 10
302.0675563686942
 20
64.94397245282512
 30
0.0
 11
301.2631265728884
 21
64.43599312352502
 31
0.0
  0
LINE
  5
30F
330
1F
100
AcDbEntity
  8
レイヤー 1
 62
     7
370
    13
100
AcDbLine
 10
301.2631265728884
 20
64.43599312352502
 30
0.0
 11
300.4590412866311
 21
64.0549655628564
 31
0.0
  0
LINE
  5
310
330
1F
100
AcDbEntity
  8
レイヤー 1
 62
     7
370
    13
100
AcDbLine
 10
300.4590412866311
 20
64.0549655628564
 30
0.0
 11
299.6546114908252
 21
63.75868735112492
 31
0.0
  0
LINE
  5
311
330
1F
100
AcDbEntity
  8
レイヤー 1
 62
     7
370
    13
100
AcDbLine
 10
299.6546114908252
 20
63.75868735112492
 30
0.0
 11
298.8501816950194
 21
63.50461155908773
 31
0.0
  0
LINE
  5
312
330
1F
100
AcDbEntity
  8
レイヤー 1
 62
     7
370
    13
100
AcDbLine
 10
298.8501816950194
 20
63.50461155908773
 30
0.0
 11
298.0881265736821
 21
63.37765979045629
 31
0.0
  0
LINE
  5
313
330
1F
100
AcDbEntity
  8
レイヤー 1
 62
     7
370
    13
100
AcDbLine
 10
298.0881265736821
 20
63.37765979045629
 30
0.0
 11
297.2840412874248
 21
63.3352851159877
 31
0.0
  0
LINE
  5
314
330
1F
100
AcDbEntity
  8
レイヤー 1
 62
     7
370
    13
100
AcDbLine
 10
297.2840412874248
 20
63.3352851159877
 30
0.0
 11
296.5219861660876
 21
63.42003446492485
 31
0.0
  0
LINE
  5
315
330
1F
100
AcDbEntity
  8
レイヤー 1
 62
     7
370
    13
100
AcDbLine
 10
296.5219861660876
 20
63.42003446492485
 30
0.0
 11
296.0985839309504
 21
63.46240913939342
 31
0.0
  0
LINE
  5
316
330
1F
100
AcDbEntity
  8
レイヤー 1
 62
     8
370
    13
100
AcDbLine
 10
47.98297933803133
 20
128.8249999976188
 30
0.0
 11
48.02518175772565
 21
128.8249999976188
 31
0.0
  0
LINE
  5
317
330
1F
100
AcDbEntity
  8
レイヤー 1
 62
     8
370
    13
100
AcDbLine
 10
53.86720242683808
 20
115.9556735576937
 30
0.0
 11
53.82482775236949
 21
115.9556735576937
 31
0.0
  0
LINE
  5
318
330
1F
100
AcDbEntity
  8
レイヤー 1
 62
     8
370
    13
100
AcDbLine
 10
52.63954265066928
 20
114.6432644325878
 30
0.0
 11
52.47021620756925
 21
114.6856391070564
 31
0.0
  0
LINE
  5
319
330
1F
100
AcDbEntity
  8
レイヤー 1
 62
     8
370
    13
100
AcDbLine
 10
49.54929200040019
 20
120.7817355682059
 30
0.0
 11
49.5069173259316
 21
120.7817355682059
 31
0.0
  0
LINE
  5
31A
330
1F
100
AcDbEntity
  8
レイヤー 1
 62
     8
370
    13
100
AcDbLine
 10
49.93031956106881
 20
120.0196804468687
 30
0.0
 11
48.06755643219424
 21
120.4007080075373
 31
0.0
  0
LINE
  5
31B
330
1F
100
AcDbEntity
  8
レイヤー 1
 62
     8
370
    13
100
AcDbLine
 10
48.44858399286286
 20
120.6124091251059
 30
0.0
 11
47.94060466356277
 21
120.6969862192688
 31
0.0
  0
LINE
  5
31C
330
1F
100
AcDbEntity
  8
レイヤー 1
 62
     8
370
    13
100
AcDbLine
 10
36.55284153706944
 20
117.5219862200626
 30
0.0
 11
36.51063911737512
 21
117.5219862200626
 31
0.0
  0
LINE
  5
31D
330
1F
100
AcDbEntity
  8
レイヤー 1
 62
     8
370
    13
100
AcDbLine
 10
36.595216211538
 20
117.056381565231
 30
0.0
 11
36.29893799980653
 21
117.0985839849254
 31
0.0
  0
LINE
  5
31E
330
1F
100
AcDbEntity
  8
レイヤー 1
 62
     8
370
    13
100
AcDbLine
 10
36.55284153706944
 20
116.3790757928309
 30
0.0
 11
34.85957710606914
 21
116.717728679031
 31
0.0
  0
LINE
  5
31F
330
1F
100
AcDbEntity
  8
レイヤー 1
 62
     8
370
    13
100
AcDbLine
 10
36.55284153706944
 20
116.2097493497309
 30
0.0
 11
34.73262533743767
 21
116.5907769103995
 31
0.0
  0
LINE
  5
320
330
1F
100
AcDbEntity
  8
レイヤー 1
 62
     8
370
    13
100
AcDbLine
 10
70.12322998353795
 20
105.9650689052435
 30
0.0
 11
70.12322998353795
 21
105.9226942307749
 31
0.0
  0
POINT
  5
321
330
1F
100
AcDbEntity
  8
レイヤー 1
 62
     8
370
    13
100
AcDbPoint
 10
70.03865288937507
 20
105.8379448818377
 30
0.0
  0
LINE
  5
322
330
1F
100
AcDbEntity
  8
レイヤー 1
 62
     8
370
    13
100
AcDbLine
 10
256.8131265840009
 20
69.09272869093722
 30
0.0
 11
256.8131265840009
 21
69.05035401646866
 31
0.0
  0
POINT
  5
323
330
1F
100
AcDbEntity
  8
レイヤー 1
 62
     8
370
    13
100
AcDbPoint
 10
256.7707519095324
 20
69.0079793420001
 30
0.0
  0
LINE
  5
324
330
1F
100
AcDbEntity
  8
レイヤー 1
 62
     8
370
    13
100
AcDbLine
 10
256.7707519095324
 20
69.0079793420001
 30
0.0
 11
256.7287217446123
 21
69.0079793420001
 31
0.0
  0
LINE
  5
325
330
1F
100
AcDbEntity
  8
レイヤー 1
 62
     8
370
    13
100
AcDbLine
 10
31.26117487172567
 20
108.6742919948439
 30
0.0
 11
31.21897245203138
 21
108.6742919948439
 31
0.0
  0
LINE
  5
326
330
1F
100
AcDbEntity
  8
レイヤー 1
 62
     8
370
    13
100
AcDbLine
 10
30.16063911896262
 20
109.2670206730811
 30
0.0
 11
30.07588977002547
 21
109.2670206730811
 31
0.0
  0
LINE
  5
327
330
1F
100
AcDbEntity
  8
レイヤー 1
 62
     8
370
    13
100
AcDbLine
 10
31.51525066376286
 20
109.1400689044497
 30
0.0
 11
30.11826444449406
 21
109.3939724417126
 31
0.0
  0
POINT
  5
328
330
1F
100
AcDbEntity
  8
レイヤー 1
 62
     8
370
    13
100
AcDbPoint
 10
69.99627821490648
 20
107.0657769127808
 30
0.0
  0
LINE
  5
329
330
1F
100
AcDbEntity
  8
レイヤー 1
 62
     8
370
    13
100
AcDbLine
 10
69.99627821490648
 20
107.0657769127808
 30
0.0
 11
70.03865288937507
 21
107.0657769127808
 31
0.0
  0
POINT
  5
32A
330
1F
100
AcDbEntity
  8
レイヤー 1
 62
     8
370
    13
100
AcDbPoint
 10
70.12322998353795
 20
105.8803195563063
 30
0.0
  0
LINE
  5
32B
330
1F
100
AcDbEntity
  8
レイヤー 1
 62
     8
370
    13
100
AcDbLine
 10
70.12322998353795
 20
105.8803195563063
 30
0.0
 11
70.12322998353795
 21
105.9226942307749
 31
0.0
  0
LINE
  5
32C
330
1F
100
AcDbEntity
  8
レイヤー 1
 62
     8
370
    13
100
AcDbLine
 10
70.03865288937507
 20
107.1079793324751
 30
0.0
 11
69.99627821490648
 21
107.1079793324751
 31
0.0
  0
POINT
  5
32D
330
1F
100
AcDbEntity
  8
レイヤー 1
 62
     8
370
    13
100
AcDbPoint
 10
68.93794488183775
 20
106.1343953483435
 30
0.0
  0
LINE
  5
32E
330
1F
100
AcDbEntity
  8
レイヤー 1
 62
     8
370
    13
100
AcDbLine
 10
68.93794488183775
 20
106.1343953483435
 30
0.0
 11
68.93794488183775
 21
106.0920206738749
 31
0.0
  0
LINE
  5
32F
330
1F
100
AcDbEntity
  8
レイヤー 1
 62
     8
370
    13
100
AcDbLine
 10
68.98031955630631
 20
106.0496459994063
 30
0.0
 11
68.98031955630631
 21
106.0920206738749
 31
0.0
  0
LINE
  5
330
330
1F
100
AcDbEntity
  8
レイヤー 1
 62
     8
370
    13
100
AcDbLine
 10
68.93794488183775
 20
106.1765977680378
 30
0.0
 11
68.93794488183775
 21
106.1343953483435
 31
0.0
  0
LINE
  5
331
330
1F
100
AcDbEntity
  8
レイヤー 1
 62
     8
370
    13
100
AcDbLine
 10
68.93794488183775
 20
106.1343953483435
 30
0.0
 11
68.93794488183775
 21
106.0920206738749
 31
0.0
  0
POINT
  5
332
330
1F
100
AcDbEntity
  8
レイヤー 1
 62
     8
370
    13
100
AcDbPoint
 10
68.93794488183775
 20
106.0920206738749
 30
0.0
  0
POINT
  5
333
330
1F
100
AcDbEntity
  8
レイヤー 1
 62
     8
370
    13
100
AcDbPoint
 10
70.08085530906936
 20
105.8803195563063
 30
0.0
  0
LINE
  5
334
330
1F
100
AcDbEntity
  8
レイヤー 1
 62
     8
370
    13
100
AcDbLine
 10
70.08085530906936
 20
105.8803195563063
 30
0.0
 11
70.08085530906936
 21
105.8379448818377
 31
0.0
  0
LINE
  5
335
330
1F
100
AcDbEntity
  8
レイヤー 1
 62
     8
370
    13
100
AcDbLine
 10
69.99627821490648
 20
107.0657769127808
 30
0.0
 11
69.99627821490648
 21
107.1079793324751
 31
0.0
  0
LINE
  5
336
330
1F
100
AcDbEntity
  8
レイヤー 1
 62
     8
370
    13
100
AcDbLine
 10
69.99627821490648
 20
107.1079793324751
 30
0.0
 11
69.95390354043792
 21
107.1079793324751
 31
0.0
  0
LINE
  5
337
330
1F
100
AcDbEntity
  8
レイヤー 1
 62
     8
370
    13
100
AcDbLine
 10
69.95390354043792
 20
107.1079793324751
 30
0.0
 11
69.95390354043792
 21
107.0657769127808
 31
0.0
  0
POINT
  5
338
330
1F
100
AcDbEntity
  8
レイヤー 1
 62
     8
370
    13
100
AcDbPoint
 10
69.99627821490648
 20
107.1079793324751
 30
0.0
  0
LINE
  5
339
330
1F
100
AcDbEntity
  8
レイヤー 1
 62
     8
370
    13
100
AcDbLine
 10
69.99627821490648
 20
107.1079793324751
 30
0.0
 11
69.95390354043792
 21
107.1079793324751
 31
0.0
  0
POINT
  5
33A
330
1F
100
AcDbEntity
  8
レイヤー 1
 62
     8
370
    13
100
AcDbPoint
 10
70.03865288937507
 20
105.8379448818377
 30
0.0
  0
POINT
  5
33B
330
1F
100
AcDbEntity
  8
レイヤー 1
 62
     8
370
    13
100
AcDbPoint
 10
256.7287217446123
 20
70.1932644437003
 30
0.0
  0
POINT
  5
33C
330
1F
100
AcDbEntity
  8
レイヤー 1
 62
     8
370
    13
100
AcDbPoint
 10
256.8131265840009
 20
69.05035401646866
 30
0.0
  0
LINE
  5
33D
330
1F
100
AcDbEntity
  8
レイヤー 1
 62
     8
370
    13
100
AcDbLine
 10
256.8131265840009
 20
69.05035401646866
 30
0.0
 11
256.8555012584695
 21
69.05035401646866
 31
0.0
  0
POINT
  5
33E
330
1F
100
AcDbEntity
  8
レイヤー 1
 62
     8
370
    13
100
AcDbPoint
 10
256.7287217446123
 20
70.23563911816886
 30
0.0
  0
LINE
  5
33F
330
1F
100
AcDbEntity
  8
レイヤー 1
 62
     8
370
    13
100
AcDbLine
 10
255.6703884115435
 20
69.30442980850584
 30
0.0
 11
255.628013737075
 21
69.26205513403725
 31
0.0
  0
LINE
  5
340
330
1F
100
AcDbEntity
  8
レイヤー 1
 62
     8
370
    13
100
AcDbLine
 10
255.628013737075
 20
69.26205513403725
 30
0.0
 11
255.6703884115435
 21
69.21968045956869
 31
0.0
  0
POINT
  5
341
330
1F
100
AcDbEntity
  8
レイヤー 1
 62
     8
370
    13
100
AcDbPoint
 10
255.6703884115435
 20
69.21968045956869
 30
0.0
  0
LINE
  5
342
330
1F
100
AcDbEntity
  8
レイヤー 1
 62
     8
370
    13
100
AcDbLine
 10
255.6703884115435
 20
69.30442980850584
 30
0.0
 11
255.628013737075
 21
69.30442980850584
 31
0.0
  0
LINE
  5
343
330
1F
100
AcDbEntity
  8
レイヤー 1
 62
     8
370
    13
100
AcDbLine
 10
255.628013737075
 20
69.30442980850584
 30
0.0
 11
255.628013737075
 21
69.26205513403725
 31
0.0
  0
LINE
  5
344
330
1F
100
AcDbEntity
  8
レイヤー 1
 62
     8
370
    13
100
AcDbLine
 10
255.628013737075
 20
69.26205513403725
 30
0.0
 11
255.628013737075
 21
69.21968045956869
 31
0.0
  0
POINT
  5
345
330
1F
100
AcDbEntity
  8
レイヤー 1
 62
     8
370
    13
100
AcDbPoint
 10
255.628013737075
 20
69.21968045956869
 30
0.0
  0
POINT
  5
346
330
1F
100
AcDbEntity
  8
レイヤー 1
 62
     8
370
    13
100
AcDbPoint
 10
256.7707519095324
 20
69.0079793420001
 30
0.0
  0
LINE
  5
347
330
1F
100
AcDbEntity
  8
レイヤー 1
 62
     8
370
    13
100
AcDbLine
 10
256.7287217446123
 20
70.23563911816886
 30
0.0
 11
256.6863470701437
 21
70.23563911816886
 31
0.0
  0
LINE
  5
348
330
1F
100
AcDbEntity
  8
レイヤー 1
 62
     8
370
    13
100
AcDbLine
 10
256.6863470701437
 20
70.23563911816886
 30
0.0
 11
256.6439723956751
 21
70.23563911816886
 31
0.0
  0
POINT
  5
349
330
1F
100
AcDbEntity
  8
レイヤー 1
 62
     8
370
    13
100
AcDbPoint
 10
256.6863470701437
 20
70.23563911816886
 30
0.0
  0
LINE
  5
34A
330
1F
100
AcDbEntity
  8
レイヤー 1
 62
     8
370
    13
100
AcDbLine
 10
256.6863470701437
 20
70.23563911816886
 30
0.0
 11
256.6439723956751
 21
70.23563911816886
 31
0.0
  0
POINT
  5
34B
330
1F
100
AcDbEntity
  8
レイヤー 1
 62
     8
370
    13
100
AcDbPoint
 10
256.7287217446123
 20
69.0079793420001
 30
0.0
  0
LINE
  5
34C
330
1F
100
AcDbEntity
  8
レイヤー 1
 62
     8
370
    13
100
AcDbLine
 10
36.63759088600656
 20
115.3629448794565
 30
0.0
 11
36.84929200357519
 21
115.235993110825
 31
0.0
  0
LINE
  5
34D
330
1F
100
AcDbEntity
  8
レイヤー 1
 62
     8
370
    13
100
AcDbLine
 10
36.84929200357519
 20
115.235993110825
 30
0.0
 11
37.01861844667522
 21
115.1090413421936
 31
0.0
  0
LINE
  5
34E
330
1F
100
AcDbEntity
  8
レイヤー 1
 62
     8
370
    13
100
AcDbLine
 10
37.01861844667522
 20
115.1090413421936
 30
0.0
 11
37.23031956424381
 21
114.9819173187879
 31
0.0
  0
LINE
  5
34F
330
1F
100
AcDbEntity
  8
レイヤー 1
 62
     8
370
    13
100
AcDbLine
 10
37.23031956424381
 20
114.9819173187879
 30
0.0
 11
37.44184842703814
 21
114.897340224625
 31
0.0
  0
LINE
  5
350
330
1F
100
AcDbEntity
  8
レイヤー 1
 62
     8
370
    13
100
AcDbLine
 10
37.44184842703814
 20
114.897340224625
 30
0.0
 11
37.65354954460676
 21
114.7703884559935
 31
0.0
  0
LINE
  5
351
330
1F
100
AcDbEntity
  8
レイヤー 1
 62
     8
370
    13
100
AcDbLine
 10
37.65354954460676
 20
114.7703884559935
 30
0.0
 11
37.86525066217536
 21
114.6856391070564
 31
0.0
  0
LINE
  5
352
330
1F
100
AcDbEntity
  8
レイヤー 1
 62
     8
370
    13
100
AcDbLine
 10
37.86525066217536
 20
114.6856391070564
 30
0.0
 11
38.07695177974395
 21
114.6010620128935
 31
0.0
  0
LINE
  5
353
330
1F
100
AcDbEntity
  8
レイヤー 1
 62
     8
370
    13
100
AcDbLine
 10
38.07695177974395
 20
114.6010620128935
 30
0.0
 11
38.28865289731257
 21
114.5163126639563
 31
0.0
  0
LINE
  5
354
330
1F
100
AcDbEntity
  8
レイヤー 1
 62
     8
370
    13
100
AcDbLine
 10
38.28865289731257
 20
114.5163126639563
 30
0.0
 11
38.54255643457549
 21
114.474110244262
 31
0.0
  0
LINE
  5
355
330
1F
100
AcDbEntity
  8
レイヤー 1
 62
     8
370
    13
100
AcDbLine
 10
38.54255643457549
 20
114.474110244262
 30
0.0
 11
38.75425755214408
 21
114.3893608953249
 31
0.0
  0
LINE
  5
356
330
1F
100
AcDbEntity
  8
レイヤー 1
 62
     8
370
    13
100
AcDbLine
 10
36.63759088600656
 20
115.3629448794565
 30
0.0
 11
36.63759088600656
 21
115.3207424597622
 31
0.0
  0
LINE
  5
357
330
1F
100
AcDbEntity
  8
レイヤー 1
 62
     8
370
    13
100
AcDbLine
 10
36.63759088600656
 20
115.3207424597622
 30
0.0
 11
36.63759088600656
 21
115.2783677852936
 31
0.0
  0
LINE
  5
358
330
1F
100
AcDbEntity
  8
レイヤー 1
 62
     8
370
    13
100
AcDbLine
 10
48.27925754976283
 20
119.7234022351372
 30
0.0
 11
48.27925754976283
 21
119.8079793293001
 31
0.0
  0
LINE
  5
359
330
1F
100
AcDbEntity
  8
レイヤー 1
 62
     8
370
    13
100
AcDbLine
 10
48.27925754976283
 20
119.8079793293001
 30
0.0
 11
48.27925754976283
 21
119.8503540037687
 31
0.0
  0
LINE
  5
35A
330
1F
100
AcDbEntity
  8
レイヤー 1
 62
     8
370
    13
100
AcDbLine
 10
48.27925754976283
 20
119.8503540037687
 30
0.0
 11
48.27925754976283
 21
119.8927286782372
 31
0.0
  0
LINE
  5
35B
330
1F
100
AcDbEntity
  8
レイヤー 1
 62
     8
370
    13
100
AcDbLine
 10
48.27925754976283
 20
119.8927286782372
 30
0.0
 11
48.27925754976283
 21
119.9773057724001
 31
0.0
  0
LINE
  5
35C
330
1F
100
AcDbEntity
  8
レイヤー 1
 62
     8
370
    13
100
AcDbLine
 10
48.27925754976283
 20
119.9773057724001
 30
0.0
 11
48.23688287529424
 21
120.0196804468687
 31
0.0
  0
LINE
  5
35D
330
1F
100
AcDbEntity
  8
レイヤー 1
 62
     8
370
    13
100
AcDbLine
 10
48.23688287529424
 20
120.0196804468687
 30
0.0
 11
48.19450820082568
 21
120.0620551213373
 31
0.0
  0
LINE
  5
35E
330
1F
100
AcDbEntity
  8
レイヤー 1
 62
     8
370
    13
100
AcDbLine
 10
48.19450820082568
 20
120.0620551213373
 30
0.0
 11
48.15230578113136
 21
120.1044297958058
 31
0.0
  0
LINE
  5
35F
330
1F
100
AcDbEntity
  8
レイヤー 1
 62
     8
370
    13
100
AcDbLine
 10
48.15230578113136
 20
120.1044297958058
 30
0.0
 11
48.1099311066628
 21
120.1044297958058
 31
0.0
  0
POINT
  5
360
330
1F
100
AcDbEntity
  8
レイヤー 1
 62
     8
370
    13
100
AcDbPoint
 10
47.98297933803133
 20
120.1044297958058
 30
0.0
  0
LINE
  5
361
330
1F
100
AcDbEntity
  8
レイヤー 1
 62
     8
370
    13
100
AcDbLine
 10
47.98297933803133
 20
120.1044297958058
 30
0.0
 11
47.94060466356277
 21
120.0620551213373
 31
0.0
  0
LINE
  5
362
330
1F
100
AcDbEntity
  8
レイヤー 1
 62
     8
370
    13
100
AcDbLine
 10
36.84929200357519
 20
117.0140068907625
 30
0.0
 11
36.8069173291066
 21
117.0140068907625
 31
0.0
  0
LINE
  5
363
330
1F
100
AcDbEntity
  8
レイヤー 1
 62
     8
370
    13
100
AcDbLine
 10
36.8069173291066
 20
117.0140068907625
 30
0.0
 11
36.8069173291066
 21
116.9716322162939
 31
0.0
  0
LINE
  5
364
330
1F
100
AcDbEntity
  8
レイヤー 1
 62
     8
370
    13
100
AcDbLine
 10
36.8069173291066
 20
116.9716322162939
 30
0.0
 11
36.8069173291066
 21
116.9294297965996
 31
0.0
  0
LINE
  5
365
330
1F
100
AcDbEntity
  8
レイヤー 1
 62
     8
370
    13
100
AcDbLine
 10
48.49095866733143
 20
120.2735839841316
 30
0.0
 11
48.49095866733143
 21
120.1890068899687
 31
0.0
  0
LINE
  5
366
330
1F
100
AcDbEntity
  8
レイヤー 1
 62
     8
370
    13
100
AcDbLine
 10
48.40620931839427
 20
120.2313815644373
 30
0.0
 11
48.40620931839427
 21
120.3159586586002
 31
0.0
  0
LINE
  5
367
330
1F
100
AcDbEntity
  8
レイヤー 1
 62
     8
370
    13
100
AcDbLine
 10
47.94060466356277
 20
120.4007080075373
 30
0.0
 11
47.94060466356277
 21
120.3159586586002
 31
0.0
  0
LINE
  5
368
330
1F
100
AcDbEntity
  8
レイヤー 1
 62
     8
370
    13
100
AcDbLine
 10
41.08262533585017
 20
122.1787217874748
 30
0.0
 11
41.04025066138161
 21
122.1787217874748
 31
0.0
  0
LINE
  5
369
330
1F
100
AcDbEntity
  8
レイヤー 1
 62
     8
370
    13
100
AcDbLine
 10
50.90390354520042
 20
117.9030137807312
 30
0.0
 11
49.71861844350022
 21
118.1147148982998
 31
0.0
  0
LINE
  5
36A
330
1F
100
AcDbEntity
  8
レイヤー 1
 62
     8
370
    13
100
AcDbLine
 10
50.64982775316324
 20
118.4533677844999
 30
0.0
 11
49.88794488660025
 21
118.6226942275999
 31
0.0
  0
LINE
  5
36B
330
1F
100
AcDbEntity
  8
レイヤー 1
 62
     8
370
    13
100
AcDbLine
 10
50.22659777280029
 20
119.3423746744686
 30
0.0
 11
49.88794488660025
 21
119.4269517686315
 31
0.0
  0
MTEXT
  5
36D
330
1F
100
AcDbEntity
  8
0
370
    18
100
AcDbMText
 10
52.5
 20
273.6
 30
0.0
 40
15.38940663730354
 41
199.8127422783544
 71
     1
 72
     1
  1
{\fHGPｺﾞｼｯｸM|b0|i0;OPI-12K-PMH3・N\POPI-12K-PMH2・N\POPI-12K-PM2・N\POPI-12K-PM1・N}
  7
HGPｺﾞｼｯｸM
 73
     1
 44
0.75
  0
VIEWPORT
  5
36E
102
{ACAD_XDICTIONARY
360
378
102
}
330
1B
100
AcDbEntity
 67
     1
  8
0
100
AcDbViewport
 10
0.0
 20
0.0
 30
0.0
 40
436.05
 41
323.34
 68
     1
 69
     1
 12
206.25
 22
138.5
 13
0.0
 23
0.0
 14
10.0
 24
10.0
 15
10.0
 25
10.0
 16
0.0
 26
0.0
 36
1.0
 17
0.0
 27
0.0
 37
0.0
 42
50.0
 43
0.0
 44
0.0
 45
323.34
 50
0.0
 51
0.0
 72
   100
 90
   557152
  1

281
     0
 71
     1
 74
     0
110
0.0
120
0.0
130
0.0
111
1.0
121
0.0
131
0.0
112
0.0
122
1.0
132
0.0
 79
     0
146
0.0
  0
ENDSEC
  0
SECTION
  2
OBJECTS
  0
DICTIONARY
  5
C
330
0
100
AcDbDictionary
281
     1
  3
ACAD_GROUP
350
D
  3
ACAD_IMAGE_VARS
350
6F
  3
ACAD_LAYOUT
350
1A
  3
ACAD_MATERIAL
350
43
  3
ACAD_MLEADERSTYLE
350
6B
  3
ACAD_MLINESTYLE
350
17
  3
ACAD_PLOTSETTINGS
350
19
  3
ACAD_PLOTSTYLENAME
350
E
  3
ACAD_SCALELIST
350
47
  3
ACAD_TABLESTYLE
350
69
  3
ACAD_VISUALSTYLE
350
2A
  3
AcDbVariableDictionary
350
370
  3
DWGPROPS
350
377
  0
DICTIONARY
  5
37A
330
8
100
AcDbDictionary
280
     1
281
     1
  3
ACAD_XREC_ROUNDTRIP
360
37B
  0
DICTIONARY
  5
378
330
36E
100
AcDbDictionary
280
     1
281
     1
  3
ACAD_XREC_ROUNDTRIP
360
379
  0
DICTIONARY
  5
D
102
{ACAD_REACTORS
330
C
102
}
330
C
100
AcDbDictionary
281
     1
  0
RASTERVARIABLES
  5
6F
102
{ACAD_REACTORS
330
C
102
}
330
C
100
AcDbRasterVariables
 90
        0
 70
     0
 71
     1
 72
     0
  0
DICTIONARY
  5
1A
102
{ACAD_REACTORS
330
C
102
}
330
C
100
AcDbDictionary
281
     1
  3
Model
350
22
  3
レイアウト1
350
1E
  0
DICTIONARY
  5
43
102
{ACAD_REACTORS
330
C
102
}
330
C
100
AcDbDictionary
281
     1
  3
ByBlock
350
45
  3
ByLayer
350
44
  3
Global
350
46
  0
DICTIONARY
  5
6B
102
{ACAD_REACTORS
330
C
102
}
330
C
100
AcDbDictionary
281
     1
  3
Standard
350
6C
  0
DICTIONARY
  5
17
102
{ACAD_REACTORS
330
C
102
}
330
C
100
AcDbDictionary
281
     1
  3
Standard
350
18
  0
DICTIONARY
  5
19
102
{ACAD_REACTORS
330
C
102
}
330
C
100
AcDbDictionary
281
     1
  0
ACDBDICTIONARYWDFLT
  5
E
102
{ACAD_REACTORS
330
C
102
}
330
C
100
AcDbDictionary
281
     1
  3
Normal
350
F
100
AcDbDictionaryWithDefault
340
F
  0
DICTIONARY
  5
47
102
{ACAD_REACTORS
330
C
102
}
330
C
100
AcDbDictionary
281
     1
  3
A0
350
48
  3
A1
350
49
  3
A2
350
4A
  3
A3
350
4B
  3
A4
350
4C
  3
A5
350
4D
  3
A6
350
4E
  3
A7
350
4F
  3
A8
350
50
  3
A9
350
51
  3
B0
350
52
  3
B1
350
53
  3
B2
350
54
  3
B3
350
55
  3
B4
350
56
  3
B5
350
57
  3
B6
350
58
  3
B7
350
59
  3
B8
350
5A
  3
B9
350
5B
  3
C0
350
5C
  3
C1
350
5D
  3
C2
350
5E
  3
C3
350
5F
  3
C4
350
60
  3
C5
350
61
  3
C6
350
62
  3
C7
350
63
  3
C8
350
64
  3
C9
350
65
  3
D0
350
66
  3
D1
350
67
  3
D2
350
68
  0
DICTIONARY
  5
69
102
{ACAD_REACTORS
330
C
102
}
330
C
100
AcDbDictionary
281
     1
  3
Standard
350
6A
  0
DICTIONARY
  5
2A
102
{ACAD_REACTORS
330
C
102
}
330
C
100
AcDbDictionary
281
     1
  3
2dWireframe
350
2F
  3
Basic
350
32
  3
Brighten
350
36
  3
ColorChange
350
3A
  3
Conceptual
350
34
  3
Dim
350
35
  3
EdgeColorOff
350
3D
  3
Facepattern
350
39
  3
Flat
350
2B
  3
FlatWithEdges
350
2C
  3
Gouraud
350
2D
  3
GouraudWithEdges
350
2E
  3
Hidden
350
31
  3
JitterOff
350
3B
  3
Linepattern
350
38
  3
OverhangOff
350
3C
  3
Realistic
350
33
  3
Shaded
350
42
  3
Shaded with edges
350
41
  3
Shades of Gray
350
3E
  3
Sketchy
350
3F
  3
Thicken
350
37
  3
Wireframe
350
30
  3
X-Ray
350
40
  0
DICTIONARY
  5
370
102
{ACAD_REACTORS
330
C
102
}
330
C
100
AcDbDictionary
281
     1
  3
CANNOSCALE
350
37C
  3
CMLEADERSTYLE
350
372
  3
CTABLESTYLE
350
371
  3
DIMASSOC
350
375
  3
HIDETEXT
350
376
  3
MSLTSCALE
350
37D
  0
XRECORD
  5
377
102
{ACAD_REACTORS
330
C
102
}
330
C
100
AcDbXrecord
280
     1
  1
DWGPROPS COOKIE
  2

  3

  4

  6

  7

  8
Hirofumi.Sakurai
  9

300
=
301
=
302
=
303
=
304
=
305
=
306
=
307
=
308
=
309
=
 40
0.0
 41
2459135.176736505
 42
2459135.17673978
  1

 90
        0
  0
XRECORD
  5
37B
102
{ACAD_REACTORS
330
37A
102
}
330
37A
100
AcDbXrecord
280
     1
102
VTR_0.000_0.000_1.000_1.000_VISUALSTYLE
340
2F
102
VTR_0.000_0.000_1.000_1.000_GRIDDISPLAY
 70
     3
102
VTR_0.000_0.000_1.000_1.000_GRIDMAJOR
 70
     5
102
VTR_0.000_0.000_1.000_1.000_DEFAULTLIGHTING
280
     1
102
VTR_0.000_0.000_1.000_1.000_DEFAULTLIGHTINGTYPE
 70
     1
102
VTR_0.000_0.000_1.000_1.000_BRIGHTNESS
141
0.0
102
VTR_0.000_0.000_1.000_1.000_CONTRAST
142
0.0
  0
XRECORD
  5
379
102
{ACAD_REACTORS
330
378
102
}
330
378
100
AcDbXrecord
280
     1
102
VISUALSTYLE
340
2F
102
GRIDDISPLAY
 70
     2
102
GRIDMAJOR
 70
     5
102
DEFAULTLIGHTING
280
     1
102
DEFAULTLIGHTINGTYPE
 70
     1
102
BRIGHTNESS
141
0.0
102
CONTRAST
142
0.0
  0
LAYOUT
  5
22
102
{ACAD_REACTORS
330
1A
102
}
330
1A
100
AcDbPlotSettings
  1

  2
none_device
  4
Letter_(8.50_x_11.00_Inches)
  6

 40
6.35
 41
6.35
 42
6.35000508
 43
6.35000508
 44
215.9
 45
279.4
 46
0.0
 47
0.0
 48
0.0
 49
0.0
140
0.0
141
0.0
142
1.0
143
1.0
 70
  1712
 72
     0
 73
     0
 74
     0
  7

 75
     0
147
1.0
148
0.0
149
0.0
100
AcDbLayout
  1
Model
 70
     1
 71
     0
 10
37.54189386944613
 20
71.76085919089053
 11
391.2898965750629
 21
342.0
 12
0.0
 22
0.0
 32
0.0
 14
37.54189386944613
 24
71.76085919089053
 34
0.0
 15
391.2898965750629
 25
342.0
 35
0.0
146
0.0
 13
0.0
 23
0.0
 33
0.0
 16
1.0
 26
0.0
 36
0.0
 17
0.0
 27
1.0
 37
0.0
 76
     0
330
1F
331
29
  0
LAYOUT
  5
1E
102
{ACAD_REACTORS
330
1A
102
}
330
1A
100
AcDbPlotSettings
  1

  2
none_device
  4
ISO_A3_(420.00_x_297.00_MM)
  6

 40
7.5
 41
20.0
 42
7.5
 43
20.0
 44
420.0
 45
297.0
 46
-7.5
 47
-20.0
 48
0.0
 49
0.0
140
0.0
141
0.0
142
1.0
143
1.0
 70
   688
 72
     1
 73
     0
 74
     5
  7

 75
    16
147
1.0
148
0.0
149
0.0
100
AcDbLayout
  1
レイアウト1
 70
     0
 71
     1
 10
-7.5
 20
-20.0
 11
420.0
 21
297.0
 12
0.0
 22
0.0
 32
0.0
 14
-9.375
 24
-25.0
 34
0.0
 15
525.0
 25
371.25
 35
0.0
146
0.0
 13
0.0
 23
0.0
 33
0.0
 16
1.0
 26
0.0
 36
0.0
 17
0.0
 27
1.0
 37
0.0
 76
     0
330
1B
331
36E
  0
MATERIAL
  5
45
102
{ACAD_REACTORS
330
43
102
}
102
{ACAD_XDICTIONARY
360
3B0
102
}
330
43
100
AcDbMaterial
  1
ByBlock
  0
MATERIAL
  5
44
102
{ACAD_REACTORS
330
43
102
}
102
{ACAD_XDICTIONARY
360
3AE
102
}
330
43
100
AcDbMaterial
  1
ByLayer
  0
MATERIAL
  5
46
102
{ACAD_REACTORS
330
43
102
}
102
{ACAD_XDICTIONARY
360
3B2
102
}
330
43
100
AcDbMaterial
  1
Global
  0
MLEADERSTYLE
  5
6C
102
{ACAD_REACTORS
330
6B
102
}
102
{ACAD_XDICTIONARY
360
3B5
102
}
330
6B
100
AcDbMLeaderStyle
170
     2
171
     1
172
     0
 90
        2
 40
0.0
 41
0.0
173
     1
 91
-1056964608
340
14
 92
       -2
290
     1
 42
0.09
291
     1
 43
0.36
  3
Standard
341
0
 44
0.18
300

342
11
174
     1
178
     6
175
     1
176
     0
 93
-1056964608
 45
0.18
292
     0
297
     0
 46
0.18
343
0
 94
-1056964608
 47
1.0
 49
1.0
140
1.0
293
     1
141
0.0
294
     1
177
     0
142
1.0
295
     0
296
     0
143
0.125
1001
ACAD_MLEADERVER
1070
     2
  0
MLINESTYLE
  5
18
102
{ACAD_REACTORS
330
17
102
}
330
17
100
AcDbMlineStyle
  2
Standard
 70
     0
  3

 62
   256
 51
90.0
 52
90.0
 71
     2
 49
0.5
 62
   256
  6
BYLAYER
 49
-0.5
 62
   256
  6
BYLAYER
  0
ACDBPLACEHOLDER
  5
F
102
{ACAD_REACTORS
330
E
102
}
330
E
  0
SCALE
  5
48
102
{ACAD_REACTORS
330
47
102
}
330
47
100
AcDbScale
 70
     0
300
1:1
140
1.0
141
1.0
290
     1
  0
SCALE
  5
49
102
{ACAD_REACTORS
330
47
102
}
330
47
100
AcDbScale
 70
     0
300
1:2
140
1.0
141
2.0
290
     0
  0
SCALE
  5
4A
102
{ACAD_REACTORS
330
47
102
}
330
47
100
AcDbScale
 70
     0
300
1:4
140
1.0
141
4.0
290
     0
  0
SCALE
  5
4B
102
{ACAD_REACTORS
330
47
102
}
330
47
100
AcDbScale
 70
     0
300
1:5
140
1.0
141
5.0
290
     0
  0
SCALE
  5
4C
102
{ACAD_REACTORS
330
47
102
}
330
47
100
AcDbScale
 70
     0
300
1:8
140
1.0
141
8.0
290
     0
  0
SCALE
  5
4D
102
{ACAD_REACTORS
330
47
102
}
330
47
100
AcDbScale
 70
     0
300
1:10
140
1.0
141
10.0
290
     0
  0
SCALE
  5
4E
102
{ACAD_REACTORS
330
47
102
}
330
47
100
AcDbScale
 70
     0
300
1:16
140
1.0
141
16.0
290
     0
  0
SCALE
  5
4F
102
{ACAD_REACTORS
330
47
102
}
330
47
100
AcDbScale
 70
     0
300
1:20
140
1.0
141
20.0
290
     0
  0
SCALE
  5
50
102
{ACAD_REACTORS
330
47
102
}
330
47
100
AcDbScale
 70
     0
300
1:30
140
1.0
141
30.0
290
     0
  0
SCALE
  5
51
102
{ACAD_REACTORS
330
47
102
}
330
47
100
AcDbScale
 70
     0
300
1:40
140
1.0
141
40.0
290
     0
  0
SCALE
  5
52
102
{ACAD_REACTORS
330
47
102
}
330
47
100
AcDbScale
 70
     0
300
1:50
140
1.0
141
50.0
290
     0
  0
SCALE
  5
53
102
{ACAD_REACTORS
330
47
102
}
330
47
100
AcDbScale
 70
     0
300
1:100
140
1.0
141
100.0
290
     0
  0
SCALE
  5
54
102
{ACAD_REACTORS
330
47
102
}
330
47
100
AcDbScale
 70
     0
300
2:1
140
2.0
141
1.0
290
     0
  0
SCALE
  5
55
102
{ACAD_REACTORS
330
47
102
}
330
47
100
AcDbScale
 70
     0
300
4:1
140
4.0
141
1.0
290
     0
  0
SCALE
  5
56
102
{ACAD_REACTORS
330
47
102
}
330
47
100
AcDbScale
 70
     0
300
8:1
140
8.0
141
1.0
290
     0
  0
SCALE
  5
57
102
{ACAD_REACTORS
330
47
102
}
330
47
100
AcDbScale
 70
     0
300
10:1
140
10.0
141
1.0
290
     0
  0
SCALE
  5
58
102
{ACAD_REACTORS
330
47
102
}
330
47
100
AcDbScale
 70
     0
300
100:1
140
100.0
141
1.0
290
     0
  0
SCALE
  5
59
102
{ACAD_REACTORS
330
47
102
}
330
47
100
AcDbScale
 70
     0
300
1/128" = 1'-0"
140
0.0078125
141
12.0
290
     0
  0
SCALE
  5
5A
102
{ACAD_REACTORS
330
47
102
}
330
47
100
AcDbScale
 70
     0
300
1/64" = 1'-0"
140
0.015625
141
12.0
290
     0
  0
SCALE
  5
5B
102
{ACAD_REACTORS
330
47
102
}
330
47
100
AcDbScale
 70
     0
300
1/32" = 1'-0"
140
0.03125
141
12.0
290
     0
  0
SCALE
  5
5C
102
{ACAD_REACTORS
330
47
102
}
330
47
100
AcDbScale
 70
     0
300
1/16" = 1'-0"
140
0.0625
141
12.0
290
     0
  0
SCALE
  5
5D
102
{ACAD_REACTORS
330
47
102
}
330
47
100
AcDbScale
 70
     0
300
3/32" = 1'-0"
140
0.09375
141
12.0
290
     0
  0
SCALE
  5
5E
102
{ACAD_REACTORS
330
47
102
}
330
47
100
AcDbScale
 70
     0
300
1/8" = 1'-0"
140
0.125
141
12.0
290
     0
  0
SCALE
  5
5F
102
{ACAD_REACTORS
330
47
102
}
330
47
100
AcDbScale
 70
     0
300
3/16" = 1'-0"
140
0.1875
141
12.0
290
     0
  0
SCALE
  5
60
102
{ACAD_REACTORS
330
47
102
}
330
47
100
AcDbScale
 70
     0
300
1/4" = 1'-0"
140
0.25
141
12.0
290
     0
  0
SCALE
  5
61
102
{ACAD_REACTORS
330
47
102
}
330
47
100
AcDbScale
 70
     0
300
3/8" = 1'-0"
140
0.375
141
12.0
290
     0
  0
SCALE
  5
62
102
{ACAD_REACTORS
330
47
102
}
330
47
100
AcDbScale
 70
     0
300
1/2" = 1'-0"
140
0.5
141
12.0
290
     0
  0
SCALE
  5
63
102
{ACAD_REACTORS
330
47
102
}
330
47
100
AcDbScale
 70
     0
300
3/4" = 1'-0"
140
0.75
141
12.0
290
     0
  0
SCALE
  5
64
102
{ACAD_REACTORS
330
47
102
}
330
47
100
AcDbScale
 70
     0
300
1" = 1'-0"
140
1.0
141
12.0
290
     0
  0
SCALE
  5
65
102
{ACAD_REACTORS
330
47
102
}
330
47
100
AcDbScale
 70
     0
300
1-1/2" = 1'-0"
140
1.5
141
12.0
290
     0
  0
SCALE
  5
66
102
{ACAD_REACTORS
330
47
102
}
330
47
100
AcDbScale
 70
     0
300
3" = 1'-0"
140
3.0
141
12.0
290
     0
  0
SCALE
  5
67
102
{ACAD_REACTORS
330
47
102
}
330
47
100
AcDbScale
 70
     0
300
6" = 1'-0"
140
6.0
141
12.0
290
     0
  0
SCALE
  5
68
102
{ACAD_REACTORS
330
47
102
}
330
47
100
AcDbScale
 70
     0
300
1'-0" = 1'-0"
140
12.0
141
12.0
290
     0
  0
TABLESTYLE
  5
6A
102
{ACAD_REACTORS
330
69
102
}
330
69
100
AcDbTableStyle
  3
Standard
 70
     0
 71
     0
 40
0.06
 41
0.06
280
     0
281
     0
  7
Standard
140
0.18
170
     2
 62
     0
 63
   257
283
     0
274
    -2
284
     1
 64
     0
275
    -2
285
     1
 65
     0
276
    -2
286
     1
 66
     0
277
    -2
287
     1
 67
     0
278
    -2
288
     1
 68
     0
279
    -2
289
     1
 69
     0
  7
Standard
140
0.25
170
     5
 62
     0
 63
   257
283
     0
274
    -2
284
     1
 64
     0
275
    -2
285
     1
 65
     0
276
    -2
286
     1
 66
     0
277
    -2
287
     1
 67
     0
278
    -2
288
     1
 68
     0
279
    -2
289
     1
 69
     0
  7
Standard
140
0.18
170
     5
 62
     0
 63
   257
283
     0
274
    -2
284
     1
 64
     0
275
    -2
285
     1
 65
     0
276
    -2
286
     1
 66
     0
277
    -2
287
     1
 67
     0
278
    -2
288
     1
 68
     0
279
    -2
289
     1
 69
     0
  0
VISUALSTYLE
  5
2F
102
{ACAD_REACTORS
330
2A
102
}
102
{ACAD_XDICTIONARY
360
386
102
}
330
2A
100
AcDbVisualStyle
  2
2dWireframe
 70
     4
 71
     0
 72
     2
 73
     0
 90
        0
 40
0.6
 41
30.0
 62
     5
 63
     7
 74
     1
 91
        4
 64
     7
 65
   257
 75
     1
175
     1
 42
1.0
 92
        0
 66
   257
 43
1.0
 76
     1
 77
     6
 78
     2
 67
     7
 79
     5
170
     0
171
     0
290
     0
174
     0
 93
        1
 44
0.0
173
     0
291
     0
 45
0.0
1001
ACAD
1000
AcDbSavedByObjectVersion
1070
     0
  0
VISUALSTYLE
  5
32
102
{ACAD_REACTORS
330
2A
102
}
102
{ACAD_XDICTIONARY
360
38C
102
}
330
2A
100
AcDbVisualStyle
  2
Basic
 70
     7
 71
     1
 72
     0
 73
     1
 90
        0
 40
0.6
 41
30.0
 62
     5
 63
     7
 74
     0
 91
        4
 64
     7
 65
   257
 75
     1
175
     1
 42
1.0
 92
        8
 66
     7
 43
1.0
 76
     1
 77
     6
 78
     2
 67
     7
 79
     5
170
     0
171
     0
290
     0
174
     0
 93
        1
 44
0.0
173
     0
291
     1
 45
0.0
1001
ACAD
1000
AcDbSavedByObjectVersion
1070
     0
  0
VISUALSTYLE
  5
36
102
{ACAD_REACTORS
330
2A
102
}
102
{ACAD_XDICTIONARY
360
394
102
}
330
2A
100
AcDbVisualStyle
  2
Brighten
 70
    12
 71
     2
 72
     2
 73
     0
 90
        0
 40
0.6
 41
30.0
 62
     5
 63
     7
 74
     1
 91
        4
 64
     7
 65
   257
 75
     1
175
     1
 42
1.0
 92
        8
 66
     7
 43
1.0
 76
     1
 77
     6
 78
     2
 67
     7
 79
     5
170
     0
171
     0
290
     0
174
     0
 93
        1
 44
50.0
173
     0
291
     1
 45
0.0
1001
ACAD
1000
AcDbSavedByObjectVersion
1070
     0
  0
VISUALSTYLE
  5
3A
102
{ACAD_REACTORS
330
2A
102
}
102
{ACAD_XDICTIONARY
360
39C
102
}
330
2A
100
AcDbVisualStyle
  2
ColorChange
 70
    16
 71
     2
 72
     2
 73
     3
 90
        0
 40
0.6
 41
30.0
 62
     5
 63
     8
 74
     1
 91
        4
 64
     7
 65
   257
 75
     1
175
     1
 42
1.0
 92
        8
 66
     8
 43
1.0
 76
     1
 77
     6
 78
     2
 67
     7
 79
     5
170
     0
171
     0
290
     0
174
     0
 93
        1
 44
0.0
173
     0
291
     1
 45
0.0
1001
ACAD
1000
AcDbSavedByObjectVersion
1070
     0
  0
VISUALSTYLE
  5
34
102
{ACAD_REACTORS
330
2A
102
}
102
{ACAD_XDICTIONARY
360
390
102
}
330
2A
100
AcDbVisualStyle
  2
Conceptual
 70
     9
 71
     3
 72
     2
 73
     0
 90
        0
 40
0.6
 41
30.0
 62
     5
 63
     7
 74
     2
 91
        2
 64
     7
 65
   257
 75
     1
175
     1
 42
179.0
 92
        8
 66
     7
 43
1.0
 76
     1
 77
     6
 78
     2
 67
     7
 79
     3
170
     0
171
     0
290
     0
174
     0
 93
        1
 44
0.0
173
     0
291
     0
 45
0.0
1001
ACAD
1000
AcDbSavedByObjectVersion
1070
     0
  0
VISUALSTYLE
  5
35
102
{ACAD_REACTORS
330
2A
102
}
102
{ACAD_XDICTIONARY
360
392
102
}
330
2A
100
AcDbVisualStyle
  2
Dim
 70
    11
 71
     2
 72
     2
 73
     0
 90
        0
 40
0.6
 41
30.0
 62
     5
 63
     7
 74
     1
 91
        4
 64
     7
 65
   257
 75
     1
175
     1
 42
1.0
 92
        8
 66
     7
 43
1.0
 76
     1
 77
     6
 78
     2
 67
     7
 79
     5
170
     0
171
     0
290
     0
174
     0
 93
        1
 44
-50.0
173
     0
291
     1
 45
0.0
1001
ACAD
1000
AcDbSavedByObjectVersion
1070
     0
  0
VISUALSTYLE
  5
3D
102
{ACAD_REACTORS
330
2A
102
}
102
{ACAD_XDICTIONARY
360
3A2
102
}
330
2A
100
AcDbVisualStyle
  2
EdgeColorOff
 70
    22
 71
     2
 72
     2
 73
     0
 90
        0
 40
0.6
 41
30.0
 62
     5
 63
     7
 74
     1
 91
        4
 64
     7
 65
   257
 75
     1
175
     1
 42
1.0
 92
        8
 66
     7
 43
1.0
 76
     1
 77
     6
 78
     2
 67
     7
 79
     5
170
     0
171
     0
290
     0
174
     0
 93
        1
 44
0.0
173
     0
291
     1
 45
0.0
1001
ACAD
1000
AcDbSavedByObjectVersion
1070
     0
  0
VISUALSTYLE
  5
39
102
{ACAD_REACTORS
330
2A
102
}
102
{ACAD_XDICTIONARY
360
39A
102
}
330
2A
100
AcDbVisualStyle
  2
Facepattern
 70
    15
 71
     2
 72
     2
 73
     0
 90
        0
 40
0.6
 41
30.0
 62
     5
 63
     7
 74
     1
 91
        4
 64
     7
 65
   257
 75
     1
175
     1
 42
1.0
 92
        8
 66
     7
 43
1.0
 76
     1
 77
     6
 78
     2
 67
     7
 79
     5
170
     0
171
     0
290
     0
174
     0
 93
        1
 44
0.0
173
     0
291
     1
 45
0.0
1001
ACAD
1000
AcDbSavedByObjectVersion
1070
     0
  0
VISUALSTYLE
  5
2B
102
{ACAD_REACTORS
330
2A
102
}
102
{ACAD_XDICTIONARY
360
37E
102
}
330
2A
100
AcDbVisualStyle
  2
Flat
 70
     0
 71
     2
 72
     1
 73
     1
 90
        2
 40
0.6
 41
30.0
 62
     5
 63
     7
 74
     0
 91
        0
 64
     7
 65
   257
 75
     1
175
     1
 42
1.0
 92
        8
 66
     7
 43
1.0
 76
     1
 77
     6
 78
     2
 67
     7
 79
     5
170
     0
171
     0
290
     0
174
     0
 93
       13
 44
0.0
173
     0
291
     1
 45
0.0
1001
ACAD
1000
AcDbSavedByObjectVersion
1070
     0
  0
VISUALSTYLE
  5
2C
102
{ACAD_REACTORS
330
2A
102
}
102
{ACAD_XDICTIONARY
360
380
102
}
330
2A
100
AcDbVisualStyle
  2
FlatWithEdges
 70
     1
 71
     2
 72
     1
 73
     1
 90
        2
 40
0.6
 41
30.0
 62
     5
 63
     7
 74
     1
 91
        0
 64
     7
 65
   257
 75
     1
175
     1
 42
1.0
 92
        0
 66
   257
 43
1.0
 76
     1
 77
     6
 78
     2
 67
     7
 79
     5
170
     0
171
     0
290
     0
174
     0
 93
       13
 44
0.0
173
     0
291
     1
 45
0.0
1001
ACAD
1000
AcDbSavedByObjectVersion
1070
     0
  0
VISUALSTYLE
  5
2D
102
{ACAD_REACTORS
330
2A
102
}
102
{ACAD_XDICTIONARY
360
382
102
}
330
2A
100
AcDbVisualStyle
  2
Gouraud
 70
     2
 71
     2
 72
     2
 73
     1
 90
        2
 40
0.6
 41
30.0
 62
     5
 63
     7
 74
     0
 91
        0
 64
     7
 65
   257
 75
     1
175
     1
 42
1.0
 92
        0
 66
     7
 43
1.0
 76
     1
 77
     6
 78
     2
 67
     7
 79
     5
170
     0
171
     0
290
     0
174
     0
 93
       13
 44
0.0
173
     0
291
     1
 45
0.0
1001
ACAD
1000
AcDbSavedByObjectVersion
1070
     0
  0
VISUALSTYLE
  5
2E
102
{ACAD_REACTORS
330
2A
102
}
102
{ACAD_XDICTIONARY
360
384
102
}
330
2A
100
AcDbVisualStyle
  2
GouraudWithEdges
 70
     3
 71
     2
 72
     2
 73
     1
 90
        2
 40
0.6
 41
30.0
 62
     5
 63
     7
 74
     1
 91
        0
 64
     7
 65
   257
 75
     1
175
     1
 42
1.0
 92
        0
 66
   257
 43
1.0
 76
     1
 77
     6
 78
     2
 67
     7
 79
     5
170
     0
171
     0
290
     0
174
     0
 93
       13
 44
0.0
173
     0
291
     1
 45
0.0
1001
ACAD
1000
AcDbSavedByObjectVersion
1070
     0
  0
VISUALSTYLE
  5
31
102
{ACAD_REACTORS
330
2A
102
}
102
{ACAD_XDICTIONARY
360
38A
102
}
330
2A
100
AcDbVisualStyle
  2
Hidden
 70
     6
 71
     1
 72
     2
 73
     2
 90
        0
 40
0.6
 41
30.0
 62
     5
 63
     7
 74
     2
 91
        2
 64
     7
 65
   257
 75
     2
175
     1
 42
40.0
 92
        0
 66
   257
 43
1.0
 76
     1
 77
     6
 78
     2
 67
     7
 79
     3
170
     0
171
     0
290
     0
174
     0
 93
        1
 44
0.0
173
     0
291
     0
 45
0.0
1001
ACAD
1000
AcDbSavedByObjectVersion
1070
     0
  0
VISUALSTYLE
  5
3B
102
{ACAD_REACTORS
330
2A
102
}
102
{ACAD_XDICTIONARY
360
39E
102
}
330
2A
100
AcDbVisualStyle
  2
JitterOff
 70
    20
 71
     2
 72
     2
 73
     0
 90
        0
 40
0.6
 41
30.0
 62
     5
 63
     7
 74
     1
 91
        4
 64
     7
 65
   257
 75
     1
175
     1
 42
1.0
 92
       10
 66
     7
 43
1.0
 76
     1
 77
     6
 78
     2
 67
     7
 79
     5
170
     0
171
     0
290
     0
174
     0
 93
        1
 44
0.0
173
     0
291
     1
 45
0.0
1001
ACAD
1000
AcDbSavedByObjectVersion
1070
     0
  0
VISUALSTYLE
  5
38
102
{ACAD_REACTORS
330
2A
102
}
102
{ACAD_XDICTIONARY
360
398
102
}
330
2A
100
AcDbVisualStyle
  2
Linepattern
 70
    14
 71
     2
 72
     2
 73
     0
 90
        0
 40
0.6
 41
30.0
 62
     5
 63
     7
 74
     1
 91
        4
 64
     7
 65
   257
 75
     7
175
     7
 42
1.0
 92
        8
 66
     7
 43
1.0
 76
     1
 77
     6
 78
     2
 67
     7
 79
     5
170
     0
171
     0
290
     0
174
     0
 93
        1
 44
0.0
173
     0
291
     1
 45
0.0
1001
ACAD
1000
AcDbSavedByObjectVersion
1070
     0
  0
VISUALSTYLE
  5
3C
102
{ACAD_REACTORS
330
2A
102
}
102
{ACAD_XDICTIONARY
360
3A0
102
}
330
2A
100
AcDbVisualStyle
  2
OverhangOff
 70
    21
 71
     2
 72
     2
 73
     0
 90
        0
 40
0.6
 41
30.0
 62
     5
 63
     7
 74
     1
 91
        4
 64
     7
 65
   257
 75
     1
175
     1
 42
1.0
 92
        9
 66
     7
 43
1.0
 76
     1
 77
     6
 78
     2
 67
     7
 79
     5
170
     0
171
     0
290
     0
174
     0
 93
        1
 44
0.0
173
     0
291
     1
 45
0.0
1001
ACAD
1000
AcDbSavedByObjectVersion
1070
     0
  0
VISUALSTYLE
  5
33
102
{ACAD_REACTORS
330
2A
102
}
102
{ACAD_XDICTIONARY
360
38E
102
}
330
2A
100
AcDbVisualStyle
  2
Realistic
 70
     8
 71
     2
 72
     3
 73
     0
 90
        2
 40
0.6
 41
30.0
 62
     5
 63
     7
 74
     0
 91
        0
 64
     7
 65
   257
 75
     1
175
     1
 42
1.0
 92
        8
 66
   257
 43
1.0
 76
     1
 77
     6
 78
     2
 67
     7
 79
     3
170
     0
171
     0
290
     0
174
     0
 93
       13
 44
0.0
173
     0
291
     0
 45
0.0
1001
ACAD
1000
AcDbSavedByObjectVersion
1070
     0
  0
VISUALSTYLE
  5
42
102
{ACAD_REACTORS
330
2A
102
}
102
{ACAD_XDICTIONARY
360
3AC
102
}
330
2A
100
AcDbVisualStyle
  2
Shaded
 70
    27
 71
     2
 72
     2
 73
     1
 90
        2
 40
0.6
 41
30.0
 62
     5
 63
     7
 74
     0
 91
        4
 64
     7
 65
   257
 75
     1
175
     1
 42
1.0
 92
        8
 66
   257
 43
1.0
 76
     1
 77
     6
 78
     2
 67
     8
 79
     3
170
     0
171
     0
290
     0
174
     0
 93
        5
 44
0.0
173
     0
291
     0
 45
0.0
1001
ACAD
1000
AcDbSavedByObjectVersion
1070
     0
  0
VISUALSTYLE
  5
41
102
{ACAD_REACTORS
330
2A
102
}
102
{ACAD_XDICTIONARY
360
3AA
102
}
330
2A
100
AcDbVisualStyle
  2
Shaded with edges
 70
    26
 71
     2
 72
     2
 73
     1
 90
        2
 40
0.6
 41
30.0
 62
     5
 63
     7
 74
     1
 91
       10
 64
     7
 65
   257
 75
     2
175
     1
 42
1.0
 92
        8
 66
   257
 43
1.0
 76
     1
 77
     6
 78
     2
 67
     7
 79
     3
170
     0
171
     0
290
     0
174
     0
 93
        5
 44
0.0
173
     0
291
     0
 45
0.0
1001
ACAD
1000
AcDbSavedByObjectVersion
1070
     0
  0
VISUALSTYLE
  5
3E
102
{ACAD_REACTORS
330
2A
102
}
102
{ACAD_XDICTIONARY
360
3A4
102
}
330
2A
100
AcDbVisualStyle
  2
Shades of Gray
 70
    23
 71
     2
 72
     2
 73
     3
 90
        0
 40
0.6
 41
30.0
 62
     5
 63
     7
 74
     2
 91
        2
 64
     7
 65
     7
 75
     1
175
     1
 42
40.0
 92
        8
 66
     7
 43
1.0
 76
     1
 77
     6
 78
     2
 67
     7
 79
     3
170
     0
171
     0
290
     0
174
     0
 93
        1
 44
0.0
173
     0
291
     0
 45
0.0
1001
ACAD
1000
AcDbSavedByObjectVersion
1070
     0
  0
VISUALSTYLE
  5
3F
102
{ACAD_REACTORS
330
2A
102
}
102
{ACAD_XDICTIONARY
360
3A6
102
}
330
2A
100
AcDbVisualStyle
  2
Sketchy
 70
    24
 71
     1
 72
     2
 73
     2
 90
        0
 40
0.6
 41
30.0
 62
     5
 63
     7
 74
     2
 91
        2
 64
     7
 65
     7
 75
     1
175
     1
 42
40.0
 92
       11
 66
     7
 43
1.0
 76
     1
 77
     6
 78
     2
 67
     7
 79
     6
170
     0
171
     0
290
     0
174
     0
 93
        1
 44
0.0
173
     0
291
     0
 45
0.0
1001
ACAD
1000
AcDbSavedByObjectVersion
1070
     0
  0
VISUALSTYLE
  5
37
102
{ACAD_REACTORS
330
2A
102
}
102
{ACAD_XDICTIONARY
360
396
102
}
330
2A
100
AcDbVisualStyle
  2
Thicken
 70
    13
 71
     2
 72
     2
 73
     0
 90
        0
 40
0.6
 41
30.0
 62
     5
 63
     7
 74
     1
 91
        4
 64
     7
 65
   257
 75
     1
175
     1
 42
1.0
 92
       12
 66
     7
 43
1.0
 76
     1
 77
     6
 78
     2
 67
     7
 79
     5
170
     0
171
     0
290
     0
174
     0
 93
        1
 44
0.0
173
     0
291
     1
 45
0.0
1001
ACAD
1000
AcDbSavedByObjectVersion
1070
     0
  0
VISUALSTYLE
  5
30
102
{ACAD_REACTORS
330
2A
102
}
102
{ACAD_XDICTIONARY
360
388
102
}
330
2A
100
AcDbVisualStyle
  2
Wireframe
 70
     5
 71
     0
 72
     2
 73
     0
 90
        0
 40
0.6
 41
30.0
 62
     5
 63
     7
 74
     1
 91
        4
 64
     7
 65
   257
 75
     1
175
     1
 42
1.0
 92
        0
 66
   257
 43
1.0
 76
     1
 77
     6
 78
     2
 67
     7
 79
     3
170
     0
171
     0
290
     0
174
     0
 93
        1
 44
0.0
173
     0
291
     0
 45
0.0
1001
ACAD
1000
AcDbSavedByObjectVersion
1070
     0
  0
VISUALSTYLE
  5
40
102
{ACAD_REACTORS
330
2A
102
}
102
{ACAD_XDICTIONARY
360
3A8
102
}
330
2A
100
AcDbVisualStyle
  2
X-Ray
 70
    25
 71
     2
 72
     2
 73
     1
 90
        1
 40
0.5
 41
30.0
 62
     5
 63
     7
 74
     1
 91
        0
 64
     7
 65
   257
 75
     1
175
     1
 42
1.0
 92
        8
 66
     7
 43
1.0
 76
     1
 77
     6
 78
     2
 67
     7
 79
     3
170
     0
171
     0
290
     0
174
     0
 93
       13
 44
0.0
173
     0
291
     0
 45
0.0
1001
ACAD
1000
AcDbSavedByObjectVersion
1070
     0
  0
DICTIONARYVAR
  5
37C
102
{ACAD_REACTORS
330
370
102
}
330
370
100
DictionaryVariables
280
     0
  1
1:1
  0
DICTIONARYVAR
  5
372
102
{ACAD_REACTORS
330
370
102
}
330
370
100
DictionaryVariables
280
     0
  1
Standard
  0
DICTIONARYVAR
  5
371
102
{ACAD_REACTORS
330
370
102
}
330
370
100
DictionaryVariables
280
     0
  1
Standard
  0
DICTIONARYVAR
  5
375
102
{ACAD_REACTORS
330
370
102
}
330
370
100
DictionaryVariables
280
     0
  1
2
  0
DICTIONARYVAR
  5
376
102
{ACAD_REACTORS
330
370
102
}
330
370
100
DictionaryVariables
280
     0
  1
1
  0
DICTIONARYVAR
  5
37D
102
{ACAD_REACTORS
330
370
102
}
330
370
100
DictionaryVariables
280
     0
  1
1
  0
DICTIONARY
  5
3B0
330
45
100
AcDbDictionary
280
     1
281
     1
  3
ACAD_XREC_ROUNDTRIP
360
3B1
  0
DICTIONARY
  5
3AE
330
44
100
AcDbDictionary
280
     1
281
     1
  3
ACAD_XREC_ROUNDTRIP
360
3AF
  0
DICTIONARY
  5
3B2
330
46
100
AcDbDictionary
280
     1
281
     1
  3
ACAD_XREC_ROUNDTRIP
360
3B3
  0
DICTIONARY
  5
3B5
330
6C
100
AcDbDictionary
280
     1
281
     1
  3
ACAD_XREC_ROUNDTRIP
360
3B6
  0
DICTIONARY
  5
386
330
2F
100
AcDbDictionary
280
     1
281
     1
  3
ACAD_XREC_ROUNDTRIP
360
387
  0
DICTIONARY
  5
38C
330
32
100
AcDbDictionary
280
     1
281
     1
  3
ACAD_XREC_ROUNDTRIP
360
38D
  0
DICTIONARY
  5
394
330
36
100
AcDbDictionary
280
     1
281
     1
  3
ACAD_XREC_ROUNDTRIP
360
395
  0
DICTIONARY
  5
39C
330
3A
100
AcDbDictionary
280
     1
281
     1
  3
ACAD_XREC_ROUNDTRIP
360
39D
  0
DICTIONARY
  5
390
330
34
100
AcDbDictionary
280
     1
281
     1
  3
ACAD_XREC_ROUNDTRIP
360
391
  0
DICTIONARY
  5
392
330
35
100
AcDbDictionary
280
     1
281
     1
  3
ACAD_XREC_ROUNDTRIP
360
393
  0
DICTIONARY
  5
3A2
330
3D
100
AcDbDictionary
280
     1
281
     1
  3
ACAD_XREC_ROUNDTRIP
360
3A3
  0
DICTIONARY
  5
39A
330
39
100
AcDbDictionary
280
     1
281
     1
  3
ACAD_XREC_ROUNDTRIP
360
39B
  0
DICTIONARY
  5
37E
330
2B
100
AcDbDictionary
280
     1
281
     1
  3
ACAD_XREC_ROUNDTRIP
360
37F
  0
DICTIONARY
  5
380
330
2C
100
AcDbDictionary
280
     1
281
     1
  3
ACAD_XREC_ROUNDTRIP
360
381
  0
DICTIONARY
  5
382
330
2D
100
AcDbDictionary
280
     1
281
     1
  3
ACAD_XREC_ROUNDTRIP
360
383
  0
DICTIONARY
  5
384
330
2E
100
AcDbDictionary
280
     1
281
     1
  3
ACAD_XREC_ROUNDTRIP
360
385
  0
DICTIONARY
  5
38A
330
31
100
AcDbDictionary
280
     1
281
     1
  3
ACAD_XREC_ROUNDTRIP
360
38B
  0
DICTIONARY
  5
39E
330
3B
100
AcDbDictionary
280
     1
281
     1
  3
ACAD_XREC_ROUNDTRIP
360
39F
  0
DICTIONARY
  5
398
330
38
100
AcDbDictionary
280
     1
281
     1
  3
ACAD_XREC_ROUNDTRIP
360
399
  0
DICTIONARY
  5
3A0
330
3C
100
AcDbDictionary
280
     1
281
     1
  3
ACAD_XREC_ROUNDTRIP
360
3A1
  0
DICTIONARY
  5
38E
330
33
100
AcDbDictionary
280
     1
281
     1
  3
ACAD_XREC_ROUNDTRIP
360
38F
  0
DICTIONARY
  5
3AC
330
42
100
AcDbDictionary
280
     1
281
     1
  3
ACAD_XREC_ROUNDTRIP
360
3AD
  0
DICTIONARY
  5
3AA
330
41
100
AcDbDictionary
280
     1
281
     1
  3
ACAD_XREC_ROUNDTRIP
360
3AB
  0
DICTIONARY
  5
3A4
330
3E
100
AcDbDictionary
280
     1
281
     1
  3
ACAD_XREC_ROUNDTRIP
360
3A5
  0
DICTIONARY
  5
3A6
330
3F
100
AcDbDictionary
280
     1
281
     1
  3
ACAD_XREC_ROUNDTRIP
360
3A7
  0
DICTIONARY
  5
396
330
37
100
AcDbDictionary
280
     1
281
     1
  3
ACAD_XREC_ROUNDTRIP
360
397
  0
DICTIONARY
  5
388
330
30
100
AcDbDictionary
280
     1
281
     1
  3
ACAD_XREC_ROUNDTRIP
360
389
  0
DICTIONARY
  5
3A8
330
40
100
AcDbDictionary
280
     1
281
     1
  3
ACAD_XREC_ROUNDTRIP
360
3A9
  0
XRECORD
  5
3B1
102
{ACAD_REACTORS
330
3B0
102
}
330
3B0
100
AcDbXrecord
280
     1
102
MATERIAL
148
0.0
149
0.0
149
0.0
 93
        0
 94
      127
282
     0
 72
     1
 77
     1
171
     1
175
     1
179
     1
273
     0
  0
XRECORD
  5
3AF
102
{ACAD_REACTORS
330
3AE
102
}
330
3AE
100
AcDbXrecord
280
     1
102
MATERIAL
148
0.0
149
0.0
149
0.0
 93
        0
 94
      127
282
     0
 72
     1
 77
     1
171
     1
175
     1
179
     1
273
     0
  0
XRECORD
  5
3B3
102
{ACAD_REACTORS
330
3B2
102
}
330
3B2
100
AcDbXrecord
280
     1
102
MATERIAL
148
0.0
149
0.0
149
0.0
 93
        0
 94
      127
282
     0
 72
     1
 77
     1
171
     1
175
     1
179
     1
273
     0
  0
XRECORD
  5
3B6
102
{ACAD_REACTORS
330
3B5
102
}
330
3B5
100
AcDbXrecord
280
     1
102
ACAD_ROUNDTRIP_2010_MLEADER_STYLE
  0
XRECORD
  5
387
102
{ACAD_REACTORS
330
386
102
}
330
386
100
AcDbXrecord
280
     1
102
RTVSPropertyOp0
 70
     1
102
RTVSPropertyOp1
 70
     1
102
RTVSPropertyOp2
 70
     1
102
RTVSPropertyOp3
 70
     1
102
RTVSPropertyOp4
 70
     1
102
RTVSPropertyOp5
 70
     1
102
RTVSPropertyOp6
 70
     1
102
RTVSPropertyOp7
 70
     1
102
RTVSPropertyOp8
 70
     1
102
RTVSPropertyOp9
 70
     1
102
RTVSPropertyOp10
 70
     1
102
RTVSPropertyOp11
 70
     1
102
RTVSPropertyOp12
 70
     1
102
RTVSPropertyOp13
 70
     1
102
RTVSPropertyOp14
 70
     1
102
RTVSPropertyOp15
 70
     1
102
RTVSPropertyOp16
 70
     1
102
RTVSPropertyOp17
 70
     1
102
RTVSPropertyOp18
 70
     1
102
RTVSPropertyOp19
 70
     1
102
RTVSPropertyOp20
 70
     1
102
RTVSPropertyOp21
 70
     1
102
RTVSPropertyOp22
 70
     1
102
RTVSPropertyOp23
 70
     1
102
RTVSPropertyOp24
 70
     1
102
RTVSPropertyOp25
 70
     1
102
RTVSPropertyOp26
 70
     1
102
RTVSPropertyOp27
 70
     1
102
RTVSPropertyOp28
 70
     1
102
RTVSPropertyOp29
 70
     1
102
RTVSPropertyOp30
 70
     1
102
RTVSPropertyOp31
 70
     1
102
RTVSPropertyOp32
 70
     1
102
RTVSPropertyOp33
 70
     1
102
RTVSPropertyOp34
 70
     1
102
RTVSPropertyOp35
 70
     1
102
RTVSPropertyOp36
 70
     1
102
RTVSPropertyOp37
 70
     1
102
RTVSPropertyOp38
 70
     1
102
RTVSPropertyOp39
 70
     1
102
RTVSPropertyOp40
 70
     1
102
RTVSPropertyOp41
 70
     1
102
RTVSPropertyOp42
 70
     1
102
RTVSPropertyOp43
 70
     1
102
RTVSPropertyOp44
 70
     1
102
RTVSPropertyOp45
 70
     1
102
RTVSPropertyOp46
 70
     1
102
RTVSPropertyOp47
 70
     1
102
RTVSPropertyOp48
 70
     1
102
RTVSPropertyOp49
 70
     1
102
RTVSPropertyOp50
 70
     1
102
RTVSPropertyOp51
 70
     0
102
RTVSPropertyOp52
 70
     0
102
RTVSPropertyOp53
 70
     1
102
RTVSPropertyOp54
 70
     1
102
RTVSPropertyOp55
 70
     1
102
RTVSPropertyOp56
 70
     1
102
RTVSPropertyOp57
 70
     1
102
RTVSPost2010Prop28
280
     1
102
RTVSPost2010PropOp28
 70
     1
102
RTVSPost2010Prop29
280
     1
102
RTVSPost2010PropOp29
 70
     1
102
RTVSPost2010Prop30
280
     0
102
RTVSPost2010PropOp30
 70
     1
102
RTVSPost2010Prop31
280
     0
102
RTVSPost2010PropOp31
 70
     1
102
RTVSPost2010Prop32
280
     0
102
RTVSPost2010PropOp32
 70
     1
102
RTVSPost2010Prop33
280
     0
102
RTVSPost2010PropOp33
 70
     1
102
RTVSPost2010Prop34
280
     0
102
RTVSPost2010PropOp34
 70
     1
102
RTVSPost2010Prop35
280
     0
102
RTVSPost2010PropOp35
 70
     1
102
RTVSPost2010Prop36
280
     0
102
RTVSPost2010PropOp36
 70
     1
102
RTVSPost2010Prop37
 90
       50
102
RTVSPost2010PropOp37
 70
     1
102
RTVSPost2010Prop38
140
0.0
102
RTVSPost2010PropOp38
 70
     1
102
RTVSPost2010Prop39
140
1.0
102
RTVSPost2010PropOp39
 70
     1
102
RTVSPost2010Prop40
 90
        0
102
RTVSPost2010PropOp40
 70
     1
102
RTVSPost2010Prop41ColorIndex
 90
       18
102
RTVSPost2010Prop41ColorRGB
 90
        0
102
RTVSPost2010PropOp41
 70
     1
102
RTVSPost2010Prop42
 90
       50
102
RTVSPost2010PropOp42
 70
     1
102
RTVSPost2010Prop43
 90
        3
102
RTVSPost2010PropOp43
 70
     1
102
RTVSPost2010Prop44ColorIndex
 90
        5
102
RTVSPost2010Prop44ColorRGB
 90
      255
102
RTVSPost2010PropOp44
 70
     1
102
RTVSPost2010Prop45
280
     0
102
RTVSPost2010PropOp45
 70
     1
102
RTVSPost2010Prop46
 90
       50
102
RTVSPost2010PropOp46
 70
     1
102
RTVSPost2010Prop47
 90
       50
102
RTVSPost2010PropOp47
 70
     1
102
RTVSPost2010Prop48
 90
       50
102
RTVSPost2010PropOp48
 70
     1
102
RTVSPost2010Prop49
280
     0
102
RTVSPost2010PropOp49
 70
     1
102
RTVSPost2010Prop50
 90
       50
102
RTVSPost2010PropOp50
 70
     1
102
RTVSPost2010Prop51ColorIndex
 90
      256
102
RTVSPost2010Prop51ColorRGB
 90
-16777216
102
RTVSPost2010PropOp51
 70
     0
102
RTVSPost2010Prop52
140
1.0
102
RTVSPost2010PropOp52
 70
     0
102
RTVSPost2010Prop53
 90
        2
102
RTVSPost2010PropOp53
 70
     1
102
RTVSPost2010Prop54
  1
strokes_ogs.tif
102
RTVSPost2010PropOp54
 70
     1
102
RTVSPost2010Prop55
280
     0
102
RTVSPost2010PropOp55
 70
     1
102
RTVSPost2010Prop56
140
1.0
102
RTVSPost2010PropOp56
 70
     1
102
RTVSPost2010Prop57
140
1.0
102
RTVSPost2010PropOp57
 70
     1
  0
XRECORD
  5
38D
102
{ACAD_REACTORS
330
38C
102
}
330
38C
100
AcDbXrecord
280
     1
102
RTVSPropertyOp0
 70
     1
102
RTVSPropertyOp1
 70
     1
102
RTVSPropertyOp2
 70
     1
102
RTVSPropertyOp3
 70
     1
102
RTVSPropertyOp4
 70
     1
102
RTVSPropertyOp5
 70
     1
102
RTVSPropertyOp6
 70
     1
102
RTVSPropertyOp7
 70
     1
102
RTVSPropertyOp8
 70
     1
102
RTVSPropertyOp9
 70
     1
102
RTVSPropertyOp10
 70
     1
102
RTVSPropertyOp11
 70
     1
102
RTVSPropertyOp12
 70
     1
102
RTVSPropertyOp13
 70
     1
102
RTVSPropertyOp14
 70
     1
102
RTVSPropertyOp15
 70
     1
102
RTVSPropertyOp16
 70
     1
102
RTVSPropertyOp17
 70
     1
102
RTVSPropertyOp18
 70
     1
102
RTVSPropertyOp19
 70
     1
102
RTVSPropertyOp20
 70
     1
102
RTVSPropertyOp21
 70
     1
102
RTVSPropertyOp22
 70
     1
102
RTVSPropertyOp23
 70
     1
102
RTVSPropertyOp24
 70
     1
102
RTVSPropertyOp25
 70
     1
102
RTVSPropertyOp26
 70
     1
102
RTVSPropertyOp27
 70
     1
102
RTVSPropertyOp28
 70
     1
102
RTVSPropertyOp29
 70
     1
102
RTVSPropertyOp30
 70
     1
102
RTVSPropertyOp31
 70
     1
102
RTVSPropertyOp32
 70
     1
102
RTVSPropertyOp33
 70
     1
102
RTVSPropertyOp34
 70
     1
102
RTVSPropertyOp35
 70
     1
102
RTVSPropertyOp36
 70
     1
102
RTVSPropertyOp37
 70
     1
102
RTVSPropertyOp38
 70
     1
102
RTVSPropertyOp39
 70
     1
102
RTVSPropertyOp40
 70
     1
102
RTVSPropertyOp41
 70
     1
102
RTVSPropertyOp42
 70
     1
102
RTVSPropertyOp43
 70
     1
102
RTVSPropertyOp44
 70
     1
102
RTVSPropertyOp45
 70
     1
102
RTVSPropertyOp46
 70
     1
102
RTVSPropertyOp47
 70
     1
102
RTVSPropertyOp48
 70
     1
102
RTVSPropertyOp49
 70
     1
102
RTVSPropertyOp50
 70
     1
102
RTVSPropertyOp51
 70
     0
102
RTVSPropertyOp52
 70
     0
102
RTVSPropertyOp53
 70
     1
102
RTVSPropertyOp54
 70
     1
102
RTVSPropertyOp55
 70
     1
102
RTVSPropertyOp56
 70
     1
102
RTVSPropertyOp57
 70
     1
102
RTVSPost2010Prop28
280
     0
102
RTVSPost2010PropOp28
 70
     1
102
RTVSPost2010Prop29
280
     1
102
RTVSPost2010PropOp29
 70
     1
102
RTVSPost2010Prop30
280
     1
102
RTVSPost2010PropOp30
 70
     1
102
RTVSPost2010Prop31
280
     0
102
RTVSPost2010PropOp31
 70
     1
102
RTVSPost2010Prop32
280
     0
102
RTVSPost2010PropOp32
 70
     1
102
RTVSPost2010Prop33
280
     0
102
RTVSPost2010PropOp33
 70
     1
102
RTVSPost2010Prop34
280
     0
102
RTVSPost2010PropOp34
 70
     1
102
RTVSPost2010Prop35
280
     0
102
RTVSPost2010PropOp35
 70
     1
102
RTVSPost2010Prop36
280
     0
102
RTVSPost2010PropOp36
 70
     1
102
RTVSPost2010Prop37
 90
       50
102
RTVSPost2010PropOp37
 70
     1
102
RTVSPost2010Prop38
140
0.0
102
RTVSPost2010PropOp38
 70
     1
102
RTVSPost2010Prop39
140
1.0
102
RTVSPost2010PropOp39
 70
     1
102
RTVSPost2010Prop40
 90
        0
102
RTVSPost2010PropOp40
 70
     1
102
RTVSPost2010Prop41ColorIndex
 90
       18
102
RTVSPost2010Prop41ColorRGB
 90
        0
102
RTVSPost2010PropOp41
 70
     1
102
RTVSPost2010Prop42
 90
       50
102
RTVSPost2010PropOp42
 70
     1
102
RTVSPost2010Prop43
 90
        3
102
RTVSPost2010PropOp43
 70
     1
102
RTVSPost2010Prop44ColorIndex
 90
        5
102
RTVSPost2010Prop44ColorRGB
 90
      255
102
RTVSPost2010PropOp44
 70
     1
102
RTVSPost2010Prop45
280
     0
102
RTVSPost2010PropOp45
 70
     1
102
RTVSPost2010Prop46
 90
       50
102
RTVSPost2010PropOp46
 70
     1
102
RTVSPost2010Prop47
 90
       50
102
RTVSPost2010PropOp47
 70
     1
102
RTVSPost2010Prop48
 90
       50
102
RTVSPost2010PropOp48
 70
     1
102
RTVSPost2010Prop49
280
     0
102
RTVSPost2010PropOp49
 70
     1
102
RTVSPost2010Prop50
 90
       50
102
RTVSPost2010PropOp50
 70
     1
102
RTVSPost2010Prop51ColorIndex
 90
      256
102
RTVSPost2010Prop51ColorRGB
 90
-16777216
102
RTVSPost2010PropOp51
 70
     0
102
RTVSPost2010Prop52
140
1.0
102
RTVSPost2010PropOp52
 70
     0
102
RTVSPost2010Prop53
 90
        2
102
RTVSPost2010PropOp53
 70
     1
102
RTVSPost2010Prop54
  1
strokes_ogs.tif
102
RTVSPost2010PropOp54
 70
     1
102
RTVSPost2010Prop55
280
     0
102
RTVSPost2010PropOp55
 70
     1
102
RTVSPost2010Prop56
140
1.0
102
RTVSPost2010PropOp56
 70
     1
102
RTVSPost2010Prop57
140
1.0
102
RTVSPost2010PropOp57
 70
     1
  0
XRECORD
  5
395
102
{ACAD_REACTORS
330
394
102
}
330
394
100
AcDbXrecord
280
     1
102
RTVSPropertyOp0
 70
     1
102
RTVSPropertyOp1
 70
     1
102
RTVSPropertyOp2
 70
     1
102
RTVSPropertyOp3
 70
     1
102
RTVSPropertyOp4
 70
     1
102
RTVSPropertyOp5
 70
     1
102
RTVSPropertyOp6
 70
     1
102
RTVSPropertyOp7
 70
     1
102
RTVSPropertyOp8
 70
     1
102
RTVSPropertyOp9
 70
     1
102
RTVSPropertyOp10
 70
     1
102
RTVSPropertyOp11
 70
     1
102
RTVSPropertyOp12
 70
     1
102
RTVSPropertyOp13
 70
     1
102
RTVSPropertyOp14
 70
     1
102
RTVSPropertyOp15
 70
     1
102
RTVSPropertyOp16
 70
     1
102
RTVSPropertyOp17
 70
     1
102
RTVSPropertyOp18
 70
     1
102
RTVSPropertyOp19
 70
     1
102
RTVSPropertyOp20
 70
     1
102
RTVSPropertyOp21
 70
     1
102
RTVSPropertyOp22
 70
     1
102
RTVSPropertyOp23
 70
     1
102
RTVSPropertyOp24
 70
     1
102
RTVSPropertyOp25
 70
     1
102
RTVSPropertyOp26
 70
     1
102
RTVSPropertyOp27
 70
     1
102
RTVSPropertyOp28
 70
     1
102
RTVSPropertyOp29
 70
     1
102
RTVSPropertyOp30
 70
     1
102
RTVSPropertyOp31
 70
     1
102
RTVSPropertyOp32
 70
     1
102
RTVSPropertyOp33
 70
     1
102
RTVSPropertyOp34
 70
     1
102
RTVSPropertyOp35
 70
     1
102
RTVSPropertyOp36
 70
     1
102
RTVSPropertyOp37
 70
     1
102
RTVSPropertyOp38
 70
     1
102
RTVSPropertyOp39
 70
     1
102
RTVSPropertyOp40
 70
     1
102
RTVSPropertyOp41
 70
     1
102
RTVSPropertyOp42
 70
     1
102
RTVSPropertyOp43
 70
     1
102
RTVSPropertyOp44
 70
     1
102
RTVSPropertyOp45
 70
     1
102
RTVSPropertyOp46
 70
     1
102
RTVSPropertyOp47
 70
     1
102
RTVSPropertyOp48
 70
     1
102
RTVSPropertyOp49
 70
     1
102
RTVSPropertyOp50
 70
     1
102
RTVSPropertyOp51
 70
     0
102
RTVSPropertyOp52
 70
     0
102
RTVSPropertyOp53
 70
     1
102
RTVSPropertyOp54
 70
     1
102
RTVSPropertyOp55
 70
     1
102
RTVSPropertyOp56
 70
     1
102
RTVSPropertyOp57
 70
     1
102
RTVSPost2010Prop28
280
     0
102
RTVSPost2010PropOp28
 70
     1
102
RTVSPost2010Prop29
280
     1
102
RTVSPost2010PropOp29
 70
     1
102
RTVSPost2010Prop30
280
     1
102
RTVSPost2010PropOp30
 70
     1
102
RTVSPost2010Prop31
280
     0
102
RTVSPost2010PropOp31
 70
     1
102
RTVSPost2010Prop32
280
     0
102
RTVSPost2010PropOp32
 70
     1
102
RTVSPost2010Prop33
280
     0
102
RTVSPost2010PropOp33
 70
     1
102
RTVSPost2010Prop34
280
     0
102
RTVSPost2010PropOp34
 70
     1
102
RTVSPost2010Prop35
280
     0
102
RTVSPost2010PropOp35
 70
     1
102
RTVSPost2010Prop36
280
     0
102
RTVSPost2010PropOp36
 70
     1
102
RTVSPost2010Prop37
 90
       50
102
RTVSPost2010PropOp37
 70
     1
102
RTVSPost2010Prop38
140
0.0
102
RTVSPost2010PropOp38
 70
     1
102
RTVSPost2010Prop39
140
1.0
102
RTVSPost2010PropOp39
 70
     1
102
RTVSPost2010Prop40
 90
        0
102
RTVSPost2010PropOp40
 70
     1
102
RTVSPost2010Prop41ColorIndex
 90
       18
102
RTVSPost2010Prop41ColorRGB
 90
        0
102
RTVSPost2010PropOp41
 70
     1
102
RTVSPost2010Prop42
 90
       50
102
RTVSPost2010PropOp42
 70
     1
102
RTVSPost2010Prop43
 90
        3
102
RTVSPost2010PropOp43
 70
     1
102
RTVSPost2010Prop44ColorIndex
 90
        5
102
RTVSPost2010Prop44ColorRGB
 90
      255
102
RTVSPost2010PropOp44
 70
     1
102
RTVSPost2010Prop45
280
     0
102
RTVSPost2010PropOp45
 70
     1
102
RTVSPost2010Prop46
 90
       50
102
RTVSPost2010PropOp46
 70
     1
102
RTVSPost2010Prop47
 90
       50
102
RTVSPost2010PropOp47
 70
     1
102
RTVSPost2010Prop48
 90
       50
102
RTVSPost2010PropOp48
 70
     1
102
RTVSPost2010Prop49
280
     0
102
RTVSPost2010PropOp49
 70
     1
102
RTVSPost2010Prop50
 90
       50
102
RTVSPost2010PropOp50
 70
     1
102
RTVSPost2010Prop51ColorIndex
 90
      256
102
RTVSPost2010Prop51ColorRGB
 90
-16777216
102
RTVSPost2010PropOp51
 70
     0
102
RTVSPost2010Prop52
140
1.0
102
RTVSPost2010PropOp52
 70
     0
102
RTVSPost2010Prop53
 90
        2
102
RTVSPost2010PropOp53
 70
     1
102
RTVSPost2010Prop54
  1
strokes_ogs.tif
102
RTVSPost2010PropOp54
 70
     1
102
RTVSPost2010Prop55
280
     0
102
RTVSPost2010PropOp55
 70
     1
102
RTVSPost2010Prop56
140
1.0
102
RTVSPost2010PropOp56
 70
     1
102
RTVSPost2010Prop57
140
1.0
102
RTVSPost2010PropOp57
 70
     1
  0
XRECORD
  5
39D
102
{ACAD_REACTORS
330
39C
102
}
330
39C
100
AcDbXrecord
280
     1
102
RTVSPropertyOp0
 70
     1
102
RTVSPropertyOp1
 70
     1
102
RTVSPropertyOp2
 70
     1
102
RTVSPropertyOp3
 70
     1
102
RTVSPropertyOp4
 70
     1
102
RTVSPropertyOp5
 70
     1
102
RTVSPropertyOp6
 70
     1
102
RTVSPropertyOp7
 70
     1
102
RTVSPropertyOp8
 70
     1
102
RTVSPropertyOp9
 70
     1
102
RTVSPropertyOp10
 70
     1
102
RTVSPropertyOp11
 70
     1
102
RTVSPropertyOp12
 70
     1
102
RTVSPropertyOp13
 70
     1
102
RTVSPropertyOp14
 70
     1
102
RTVSPropertyOp15
 70
     1
102
RTVSPropertyOp16
 70
     1
102
RTVSPropertyOp17
 70
     1
102
RTVSPropertyOp18
 70
     1
102
RTVSPropertyOp19
 70
     1
102
RTVSPropertyOp20
 70
     1
102
RTVSPropertyOp21
 70
     1
102
RTVSPropertyOp22
 70
     1
102
RTVSPropertyOp23
 70
     1
102
RTVSPropertyOp24
 70
     1
102
RTVSPropertyOp25
 70
     1
102
RTVSPropertyOp26
 70
     1
102
RTVSPropertyOp27
 70
     1
102
RTVSPropertyOp28
 70
     1
102
RTVSPropertyOp29
 70
     1
102
RTVSPropertyOp30
 70
     1
102
RTVSPropertyOp31
 70
     1
102
RTVSPropertyOp32
 70
     1
102
RTVSPropertyOp33
 70
     1
102
RTVSPropertyOp34
 70
     1
102
RTVSPropertyOp35
 70
     1
102
RTVSPropertyOp36
 70
     1
102
RTVSPropertyOp37
 70
     1
102
RTVSPropertyOp38
 70
     1
102
RTVSPropertyOp39
 70
     1
102
RTVSPropertyOp40
 70
     1
102
RTVSPropertyOp41
 70
     1
102
RTVSPropertyOp42
 70
     1
102
RTVSPropertyOp43
 70
     1
102
RTVSPropertyOp44
 70
     1
102
RTVSPropertyOp45
 70
     1
102
RTVSPropertyOp46
 70
     1
102
RTVSPropertyOp47
 70
     1
102
RTVSPropertyOp48
 70
     1
102
RTVSPropertyOp49
 70
     1
102
RTVSPropertyOp50
 70
     1
102
RTVSPropertyOp51
 70
     0
102
RTVSPropertyOp52
 70
     0
102
RTVSPropertyOp53
 70
     1
102
RTVSPropertyOp54
 70
     1
102
RTVSPropertyOp55
 70
     1
102
RTVSPropertyOp56
 70
     1
102
RTVSPropertyOp57
 70
     1
102
RTVSPost2010Prop28
280
     0
102
RTVSPost2010PropOp28
 70
     1
102
RTVSPost2010Prop29
280
     1
102
RTVSPost2010PropOp29
 70
     1
102
RTVSPost2010Prop30
280
     1
102
RTVSPost2010PropOp30
 70
     1
102
RTVSPost2010Prop31
280
     0
102
RTVSPost2010PropOp31
 70
     1
102
RTVSPost2010Prop32
280
     0
102
RTVSPost2010PropOp32
 70
     1
102
RTVSPost2010Prop33
280
     0
102
RTVSPost2010PropOp33
 70
     1
102
RTVSPost2010Prop34
280
     0
102
RTVSPost2010PropOp34
 70
     1
102
RTVSPost2010Prop35
280
     0
102
RTVSPost2010PropOp35
 70
     1
102
RTVSPost2010Prop36
280
     0
102
RTVSPost2010PropOp36
 70
     1
102
RTVSPost2010Prop37
 90
       50
102
RTVSPost2010PropOp37
 70
     1
102
RTVSPost2010Prop38
140
0.0
102
RTVSPost2010PropOp38
 70
     1
102
RTVSPost2010Prop39
140
1.0
102
RTVSPost2010PropOp39
 70
     1
102
RTVSPost2010Prop40
 90
        0
102
RTVSPost2010PropOp40
 70
     1
102
RTVSPost2010Prop41ColorIndex
 90
       18
102
RTVSPost2010Prop41ColorRGB
 90
        0
102
RTVSPost2010PropOp41
 70
     1
102
RTVSPost2010Prop42
 90
       50
102
RTVSPost2010PropOp42
 70
     1
102
RTVSPost2010Prop43
 90
        3
102
RTVSPost2010PropOp43
 70
     1
102
RTVSPost2010Prop44ColorIndex
 90
        5
102
RTVSPost2010Prop44ColorRGB
 90
      255
102
RTVSPost2010PropOp44
 70
     1
102
RTVSPost2010Prop45
280
     0
102
RTVSPost2010PropOp45
 70
     1
102
RTVSPost2010Prop46
 90
       50
102
RTVSPost2010PropOp46
 70
     1
102
RTVSPost2010Prop47
 90
       50
102
RTVSPost2010PropOp47
 70
     1
102
RTVSPost2010Prop48
 90
       50
102
RTVSPost2010PropOp48
 70
     1
102
RTVSPost2010Prop49
280
     0
102
RTVSPost2010PropOp49
 70
     1
102
RTVSPost2010Prop50
 90
       50
102
RTVSPost2010PropOp50
 70
     1
102
RTVSPost2010Prop51ColorIndex
 90
      256
102
RTVSPost2010Prop51ColorRGB
 90
-16777216
102
RTVSPost2010PropOp51
 70
     0
102
RTVSPost2010Prop52
140
1.0
102
RTVSPost2010PropOp52
 70
     0
102
RTVSPost2010Prop53
 90
        2
102
RTVSPost2010PropOp53
 70
     1
102
RTVSPost2010Prop54
  1
strokes_ogs.tif
102
RTVSPost2010PropOp54
 70
     1
102
RTVSPost2010Prop55
280
     0
102
RTVSPost2010PropOp55
 70
     1
102
RTVSPost2010Prop56
140
1.0
102
RTVSPost2010PropOp56
 70
     1
102
RTVSPost2010Prop57
140
1.0
102
RTVSPost2010PropOp57
 70
     1
  0
XRECORD
  5
391
102
{ACAD_REACTORS
330
390
102
}
330
390
100
AcDbXrecord
280
     1
102
RTVSPropertyOp0
 70
     1
102
RTVSPropertyOp1
 70
     1
102
RTVSPropertyOp2
 70
     1
102
RTVSPropertyOp3
 70
     1
102
RTVSPropertyOp4
 70
     1
102
RTVSPropertyOp5
 70
     1
102
RTVSPropertyOp6
 70
     1
102
RTVSPropertyOp7
 70
     1
102
RTVSPropertyOp8
 70
     1
102
RTVSPropertyOp9
 70
     1
102
RTVSPropertyOp10
 70
     1
102
RTVSPropertyOp11
 70
     1
102
RTVSPropertyOp12
 70
     1
102
RTVSPropertyOp13
 70
     1
102
RTVSPropertyOp14
 70
     1
102
RTVSPropertyOp15
 70
     1
102
RTVSPropertyOp16
 70
     1
102
RTVSPropertyOp17
 70
     1
102
RTVSPropertyOp18
 70
     1
102
RTVSPropertyOp19
 70
     1
102
RTVSPropertyOp20
 70
     1
102
RTVSPropertyOp21
 70
     1
102
RTVSPropertyOp22
 70
     1
102
RTVSPropertyOp23
 70
     1
102
RTVSPropertyOp24
 70
     1
102
RTVSPropertyOp25
 70
     1
102
RTVSPropertyOp26
 70
     1
102
RTVSPropertyOp27
 70
     1
102
RTVSPropertyOp28
 70
     1
102
RTVSPropertyOp29
 70
     1
102
RTVSPropertyOp30
 70
     1
102
RTVSPropertyOp31
 70
     1
102
RTVSPropertyOp32
 70
     1
102
RTVSPropertyOp33
 70
     1
102
RTVSPropertyOp34
 70
     1
102
RTVSPropertyOp35
 70
     1
102
RTVSPropertyOp36
 70
     1
102
RTVSPropertyOp37
 70
     1
102
RTVSPropertyOp38
 70
     1
102
RTVSPropertyOp39
 70
     1
102
RTVSPropertyOp40
 70
     1
102
RTVSPropertyOp41
 70
     1
102
RTVSPropertyOp42
 70
     1
102
RTVSPropertyOp43
 70
     1
102
RTVSPropertyOp44
 70
     1
102
RTVSPropertyOp45
 70
     1
102
RTVSPropertyOp46
 70
     1
102
RTVSPropertyOp47
 70
     1
102
RTVSPropertyOp48
 70
     1
102
RTVSPropertyOp49
 70
     1
102
RTVSPropertyOp50
 70
     1
102
RTVSPropertyOp51
 70
     0
102
RTVSPropertyOp52
 70
     0
102
RTVSPropertyOp53
 70
     1
102
RTVSPropertyOp54
 70
     1
102
RTVSPropertyOp55
 70
     1
102
RTVSPropertyOp56
 70
     1
102
RTVSPropertyOp57
 70
     1
102
RTVSPost2010Prop28
280
     0
102
RTVSPost2010PropOp28
 70
     1
102
RTVSPost2010Prop29
280
     1
102
RTVSPost2010PropOp29
 70
     1
102
RTVSPost2010Prop30
280
     1
102
RTVSPost2010PropOp30
 70
     1
102
RTVSPost2010Prop31
280
     0
102
RTVSPost2010PropOp31
 70
     1
102
RTVSPost2010Prop32
280
     0
102
RTVSPost2010PropOp32
 70
     1
102
RTVSPost2010Prop33
280
     0
102
RTVSPost2010PropOp33
 70
     1
102
RTVSPost2010Prop34
280
     0
102
RTVSPost2010PropOp34
 70
     1
102
RTVSPost2010Prop35
280
     0
102
RTVSPost2010PropOp35
 70
     1
102
RTVSPost2010Prop36
280
     0
102
RTVSPost2010PropOp36
 70
     1
102
RTVSPost2010Prop37
 90
       50
102
RTVSPost2010PropOp37
 70
     1
102
RTVSPost2010Prop38
140
0.0
102
RTVSPost2010PropOp38
 70
     1
102
RTVSPost2010Prop39
140
1.0
102
RTVSPost2010PropOp39
 70
     1
102
RTVSPost2010Prop40
 90
        0
102
RTVSPost2010PropOp40
 70
     1
102
RTVSPost2010Prop41ColorIndex
 90
       18
102
RTVSPost2010Prop41ColorRGB
 90
        0
102
RTVSPost2010PropOp41
 70
     1
102
RTVSPost2010Prop42
 90
       50
102
RTVSPost2010PropOp42
 70
     1
102
RTVSPost2010Prop43
 90
        3
102
RTVSPost2010PropOp43
 70
     1
102
RTVSPost2010Prop44ColorIndex
 90
        5
102
RTVSPost2010Prop44ColorRGB
 90
      255
102
RTVSPost2010PropOp44
 70
     1
102
RTVSPost2010Prop45
280
     0
102
RTVSPost2010PropOp45
 70
     1
102
RTVSPost2010Prop46
 90
       50
102
RTVSPost2010PropOp46
 70
     1
102
RTVSPost2010Prop47
 90
       50
102
RTVSPost2010PropOp47
 70
     1
102
RTVSPost2010Prop48
 90
       50
102
RTVSPost2010PropOp48
 70
     1
102
RTVSPost2010Prop49
280
     0
102
RTVSPost2010PropOp49
 70
     1
102
RTVSPost2010Prop50
 90
       50
102
RTVSPost2010PropOp50
 70
     1
102
RTVSPost2010Prop51ColorIndex
 90
      256
102
RTVSPost2010Prop51ColorRGB
 90
-16777216
102
RTVSPost2010PropOp51
 70
     0
102
RTVSPost2010Prop52
140
1.0
102
RTVSPost2010PropOp52
 70
     0
102
RTVSPost2010Prop53
 90
        2
102
RTVSPost2010PropOp53
 70
     1
102
RTVSPost2010Prop54
  1
strokes_ogs.tif
102
RTVSPost2010PropOp54
 70
     1
102
RTVSPost2010Prop55
280
     0
102
RTVSPost2010PropOp55
 70
     1
102
RTVSPost2010Prop56
140
1.0
102
RTVSPost2010PropOp56
 70
     1
102
RTVSPost2010Prop57
140
1.0
102
RTVSPost2010PropOp57
 70
     1
  0
XRECORD
  5
393
102
{ACAD_REACTORS
330
392
102
}
330
392
100
AcDbXrecord
280
     1
102
RTVSPropertyOp0
 70
     1
102
RTVSPropertyOp1
 70
     1
102
RTVSPropertyOp2
 70
     1
102
RTVSPropertyOp3
 70
     1
102
RTVSPropertyOp4
 70
     1
102
RTVSPropertyOp5
 70
     1
102
RTVSPropertyOp6
 70
     1
102
RTVSPropertyOp7
 70
     1
102
RTVSPropertyOp8
 70
     1
102
RTVSPropertyOp9
 70
     1
102
RTVSPropertyOp10
 70
     1
102
RTVSPropertyOp11
 70
     1
102
RTVSPropertyOp12
 70
     1
102
RTVSPropertyOp13
 70
     1
102
RTVSPropertyOp14
 70
     1
102
RTVSPropertyOp15
 70
     1
102
RTVSPropertyOp16
 70
     1
102
RTVSPropertyOp17
 70
     1
102
RTVSPropertyOp18
 70
     1
102
RTVSPropertyOp19
 70
     1
102
RTVSPropertyOp20
 70
     1
102
RTVSPropertyOp21
 70
     1
102
RTVSPropertyOp22
 70
     1
102
RTVSPropertyOp23
 70
     1
102
RTVSPropertyOp24
 70
     1
102
RTVSPropertyOp25
 70
     1
102
RTVSPropertyOp26
 70
     1
102
RTVSPropertyOp27
 70
     1
102
RTVSPropertyOp28
 70
     1
102
RTVSPropertyOp29
 70
     1
102
RTVSPropertyOp30
 70
     1
102
RTVSPropertyOp31
 70
     1
102
RTVSPropertyOp32
 70
     1
102
RTVSPropertyOp33
 70
     1
102
RTVSPropertyOp34
 70
     1
102
RTVSPropertyOp35
 70
     1
102
RTVSPropertyOp36
 70
     1
102
RTVSPropertyOp37
 70
     1
102
RTVSPropertyOp38
 70
     1
102
RTVSPropertyOp39
 70
     1
102
RTVSPropertyOp40
 70
     1
102
RTVSPropertyOp41
 70
     1
102
RTVSPropertyOp42
 70
     1
102
RTVSPropertyOp43
 70
     1
102
RTVSPropertyOp44
 70
     1
102
RTVSPropertyOp45
 70
     1
102
RTVSPropertyOp46
 70
     1
102
RTVSPropertyOp47
 70
     1
102
RTVSPropertyOp48
 70
     1
102
RTVSPropertyOp49
 70
     1
102
RTVSPropertyOp50
 70
     1
102
RTVSPropertyOp51
 70
     0
102
RTVSPropertyOp52
 70
     0
102
RTVSPropertyOp53
 70
     1
102
RTVSPropertyOp54
 70
     1
102
RTVSPropertyOp55
 70
     1
102
RTVSPropertyOp56
 70
     1
102
RTVSPropertyOp57
 70
     1
102
RTVSPost2010Prop28
280
     0
102
RTVSPost2010PropOp28
 70
     1
102
RTVSPost2010Prop29
280
     1
102
RTVSPost2010PropOp29
 70
     1
102
RTVSPost2010Prop30
280
     1
102
RTVSPost2010PropOp30
 70
     1
102
RTVSPost2010Prop31
280
     0
102
RTVSPost2010PropOp31
 70
     1
102
RTVSPost2010Prop32
280
     0
102
RTVSPost2010PropOp32
 70
     1
102
RTVSPost2010Prop33
280
     0
102
RTVSPost2010PropOp33
 70
     1
102
RTVSPost2010Prop34
280
     0
102
RTVSPost2010PropOp34
 70
     1
102
RTVSPost2010Prop35
280
     0
102
RTVSPost2010PropOp35
 70
     1
102
RTVSPost2010Prop36
280
     0
102
RTVSPost2010PropOp36
 70
     1
102
RTVSPost2010Prop37
 90
       50
102
RTVSPost2010PropOp37
 70
     1
102
RTVSPost2010Prop38
140
0.0
102
RTVSPost2010PropOp38
 70
     1
102
RTVSPost2010Prop39
140
1.0
102
RTVSPost2010PropOp39
 70
     1
102
RTVSPost2010Prop40
 90
        0
102
RTVSPost2010PropOp40
 70
     1
102
RTVSPost2010Prop41ColorIndex
 90
       18
102
RTVSPost2010Prop41ColorRGB
 90
        0
102
RTVSPost2010PropOp41
 70
     1
102
RTVSPost2010Prop42
 90
       50
102
RTVSPost2010PropOp42
 70
     1
102
RTVSPost2010Prop43
 90
        3
102
RTVSPost2010PropOp43
 70
     1
102
RTVSPost2010Prop44ColorIndex
 90
        5
102
RTVSPost2010Prop44ColorRGB
 90
      255
102
RTVSPost2010PropOp44
 70
     1
102
RTVSPost2010Prop45
280
     0
102
RTVSPost2010PropOp45
 70
     1
102
RTVSPost2010Prop46
 90
       50
102
RTVSPost2010PropOp46
 70
     1
102
RTVSPost2010Prop47
 90
       50
102
RTVSPost2010PropOp47
 70
     1
102
RTVSPost2010Prop48
 90
       50
102
RTVSPost2010PropOp48
 70
     1
102
RTVSPost2010Prop49
280
     0
102
RTVSPost2010PropOp49
 70
     1
102
RTVSPost2010Prop50
 90
       50
102
RTVSPost2010PropOp50
 70
     1
102
RTVSPost2010Prop51ColorIndex
 90
      256
102
RTVSPost2010Prop51ColorRGB
 90
-16777216
102
RTVSPost2010PropOp51
 70
     0
102
RTVSPost2010Prop52
140
1.0
102
RTVSPost2010PropOp52
 70
     0
102
RTVSPost2010Prop53
 90
        2
102
RTVSPost2010PropOp53
 70
     1
102
RTVSPost2010Prop54
  1
strokes_ogs.tif
102
RTVSPost2010PropOp54
 70
     1
102
RTVSPost2010Prop55
280
     0
102
RTVSPost2010PropOp55
 70
     1
102
RTVSPost2010Prop56
140
1.0
102
RTVSPost2010PropOp56
 70
     1
102
RTVSPost2010Prop57
140
1.0
102
RTVSPost2010PropOp57
 70
     1
  0
XRECORD
  5
3A3
102
{ACAD_REACTORS
330
3A2
102
}
330
3A2
100
AcDbXrecord
280
     1
102
RTVSPropertyOp0
 70
     0
102
RTVSPropertyOp1
 70
     0
102
RTVSPropertyOp2
 70
     0
102
RTVSPropertyOp3
 70
     0
102
RTVSPropertyOp4
 70
     0
102
RTVSPropertyOp5
 70
     0
102
RTVSPropertyOp6
 70
     0
102
RTVSPropertyOp7
 70
     0
102
RTVSPropertyOp8
 70
     0
102
RTVSPropertyOp9
 70
     0
102
RTVSPropertyOp10
 70
     0
102
RTVSPropertyOp11
 70
     0
102
RTVSPropertyOp12
 70
     0
102
RTVSPropertyOp13
 70
     0
102
RTVSPropertyOp14
 70
     2
102
RTVSPropertyOp15
 70
     0
102
RTVSPropertyOp16
 70
     0
102
RTVSPropertyOp17
 70
     0
102
RTVSPropertyOp18
 70
     0
102
RTVSPropertyOp19
 70
     0
102
RTVSPropertyOp20
 70
     0
102
RTVSPropertyOp21
 70
     0
102
RTVSPropertyOp22
 70
     0
102
RTVSPropertyOp23
 70
     0
102
RTVSPropertyOp24
 70
     0
102
RTVSPropertyOp25
 70
     0
102
RTVSPropertyOp26
 70
     0
102
RTVSPropertyOp27
 70
     0
102
RTVSPropertyOp28
 70
     0
102
RTVSPropertyOp29
 70
     0
102
RTVSPropertyOp30
 70
     0
102
RTVSPropertyOp31
 70
     0
102
RTVSPropertyOp32
 70
     0
102
RTVSPropertyOp33
 70
     0
102
RTVSPropertyOp34
 70
     0
102
RTVSPropertyOp35
 70
     0
102
RTVSPropertyOp36
 70
     0
102
RTVSPropertyOp37
 70
     0
102
RTVSPropertyOp38
 70
     0
102
RTVSPropertyOp39
 70
     0
102
RTVSPropertyOp40
 70
     0
102
RTVSPropertyOp41
 70
     0
102
RTVSPropertyOp42
 70
     0
102
RTVSPropertyOp43
 70
     0
102
RTVSPropertyOp44
 70
     0
102
RTVSPropertyOp45
 70
     0
102
RTVSPropertyOp46
 70
     0
102
RTVSPropertyOp47
 70
     0
102
RTVSPropertyOp48
 70
     0
102
RTVSPropertyOp49
 70
     0
102
RTVSPropertyOp50
 70
     0
102
RTVSPropertyOp51
 70
     0
102
RTVSPropertyOp52
 70
     0
102
RTVSPropertyOp53
 70
     0
102
RTVSPropertyOp54
 70
     0
102
RTVSPropertyOp55
 70
     0
102
RTVSPropertyOp56
 70
     0
102
RTVSPropertyOp57
 70
     0
102
RTVSPost2010Prop28
280
     0
102
RTVSPost2010PropOp28
 70
     0
102
RTVSPost2010Prop29
280
     1
102
RTVSPost2010PropOp29
 70
     0
102
RTVSPost2010Prop30
280
     1
102
RTVSPost2010PropOp30
 70
     0
102
RTVSPost2010Prop31
280
     0
102
RTVSPost2010PropOp31
 70
     0
102
RTVSPost2010Prop32
280
     0
102
RTVSPost2010PropOp32
 70
     0
102
RTVSPost2010Prop33
280
     0
102
RTVSPost2010PropOp33
 70
     0
102
RTVSPost2010Prop34
280
     0
102
RTVSPost2010PropOp34
 70
     0
102
RTVSPost2010Prop35
280
     0
102
RTVSPost2010PropOp35
 70
     0
102
RTVSPost2010Prop36
280
     0
102
RTVSPost2010PropOp36
 70
     0
102
RTVSPost2010Prop37
 90
       50
102
RTVSPost2010PropOp37
 70
     0
102
RTVSPost2010Prop38
140
0.0
102
RTVSPost2010PropOp38
 70
     0
102
RTVSPost2010Prop39
140
1.0
102
RTVSPost2010PropOp39
 70
     0
102
RTVSPost2010Prop40
 90
        0
102
RTVSPost2010PropOp40
 70
     0
102
RTVSPost2010Prop41ColorIndex
 90
       18
102
RTVSPost2010Prop41ColorRGB
 90
        0
102
RTVSPost2010PropOp41
 70
     0
102
RTVSPost2010Prop42
 90
       50
102
RTVSPost2010PropOp42
 70
     0
102
RTVSPost2010Prop43
 90
        3
102
RTVSPost2010PropOp43
 70
     0
102
RTVSPost2010Prop44ColorIndex
 90
        5
102
RTVSPost2010Prop44ColorRGB
 90
      255
102
RTVSPost2010PropOp44
 70
     0
102
RTVSPost2010Prop45
280
     0
102
RTVSPost2010PropOp45
 70
     0
102
RTVSPost2010Prop46
 90
       50
102
RTVSPost2010PropOp46
 70
     0
102
RTVSPost2010Prop47
 90
       50
102
RTVSPost2010PropOp47
 70
     0
102
RTVSPost2010Prop48
 90
       50
102
RTVSPost2010PropOp48
 70
     0
102
RTVSPost2010Prop49
280
     0
102
RTVSPost2010PropOp49
 70
     0
102
RTVSPost2010Prop50
 90
       50
102
RTVSPost2010PropOp50
 70
     0
102
RTVSPost2010Prop51ColorIndex
 90
      256
102
RTVSPost2010Prop51ColorRGB
 90
-16777216
102
RTVSPost2010PropOp51
 70
     0
102
RTVSPost2010Prop52
140
1.0
102
RTVSPost2010PropOp52
 70
     0
102
RTVSPost2010Prop53
 90
        2
102
RTVSPost2010PropOp53
 70
     0
102
RTVSPost2010Prop54
  1
strokes_ogs.tif
102
RTVSPost2010PropOp54
 70
     0
102
RTVSPost2010Prop55
280
     0
102
RTVSPost2010PropOp55
 70
     0
102
RTVSPost2010Prop56
140
1.0
102
RTVSPost2010PropOp56
 70
     0
102
RTVSPost2010Prop57
140
1.0
102
RTVSPost2010PropOp57
 70
     0
  0
XRECORD
  5
39B
102
{ACAD_REACTORS
330
39A
102
}
330
39A
100
AcDbXrecord
280
     1
102
RTVSPropertyOp0
 70
     1
102
RTVSPropertyOp1
 70
     1
102
RTVSPropertyOp2
 70
     1
102
RTVSPropertyOp3
 70
     1
102
RTVSPropertyOp4
 70
     1
102
RTVSPropertyOp5
 70
     1
102
RTVSPropertyOp6
 70
     1
102
RTVSPropertyOp7
 70
     1
102
RTVSPropertyOp8
 70
     1
102
RTVSPropertyOp9
 70
     1
102
RTVSPropertyOp10
 70
     1
102
RTVSPropertyOp11
 70
     1
102
RTVSPropertyOp12
 70
     1
102
RTVSPropertyOp13
 70
     1
102
RTVSPropertyOp14
 70
     1
102
RTVSPropertyOp15
 70
     1
102
RTVSPropertyOp16
 70
     1
102
RTVSPropertyOp17
 70
     1
102
RTVSPropertyOp18
 70
     1
102
RTVSPropertyOp19
 70
     1
102
RTVSPropertyOp20
 70
     1
102
RTVSPropertyOp21
 70
     1
102
RTVSPropertyOp22
 70
     1
102
RTVSPropertyOp23
 70
     1
102
RTVSPropertyOp24
 70
     1
102
RTVSPropertyOp25
 70
     1
102
RTVSPropertyOp26
 70
     1
102
RTVSPropertyOp27
 70
     1
102
RTVSPropertyOp28
 70
     1
102
RTVSPropertyOp29
 70
     1
102
RTVSPropertyOp30
 70
     1
102
RTVSPropertyOp31
 70
     1
102
RTVSPropertyOp32
 70
     1
102
RTVSPropertyOp33
 70
     1
102
RTVSPropertyOp34
 70
     1
102
RTVSPropertyOp35
 70
     1
102
RTVSPropertyOp36
 70
     1
102
RTVSPropertyOp37
 70
     1
102
RTVSPropertyOp38
 70
     1
102
RTVSPropertyOp39
 70
     1
102
RTVSPropertyOp40
 70
     1
102
RTVSPropertyOp41
 70
     1
102
RTVSPropertyOp42
 70
     1
102
RTVSPropertyOp43
 70
     1
102
RTVSPropertyOp44
 70
     1
102
RTVSPropertyOp45
 70
     1
102
RTVSPropertyOp46
 70
     1
102
RTVSPropertyOp47
 70
     1
102
RTVSPropertyOp48
 70
     1
102
RTVSPropertyOp49
 70
     1
102
RTVSPropertyOp50
 70
     1
102
RTVSPropertyOp51
 70
     0
102
RTVSPropertyOp52
 70
     0
102
RTVSPropertyOp53
 70
     1
102
RTVSPropertyOp54
 70
     1
102
RTVSPropertyOp55
 70
     1
102
RTVSPropertyOp56
 70
     1
102
RTVSPropertyOp57
 70
     1
102
RTVSPost2010Prop28
280
     0
102
RTVSPost2010PropOp28
 70
     1
102
RTVSPost2010Prop29
280
     1
102
RTVSPost2010PropOp29
 70
     1
102
RTVSPost2010Prop30
280
     1
102
RTVSPost2010PropOp30
 70
     1
102
RTVSPost2010Prop31
280
     0
102
RTVSPost2010PropOp31
 70
     1
102
RTVSPost2010Prop32
280
     0
102
RTVSPost2010PropOp32
 70
     1
102
RTVSPost2010Prop33
280
     0
102
RTVSPost2010PropOp33
 70
     1
102
RTVSPost2010Prop34
280
     0
102
RTVSPost2010PropOp34
 70
     1
102
RTVSPost2010Prop35
280
     0
102
RTVSPost2010PropOp35
 70
     1
102
RTVSPost2010Prop36
280
     0
102
RTVSPost2010PropOp36
 70
     1
102
RTVSPost2010Prop37
 90
       50
102
RTVSPost2010PropOp37
 70
     1
102
RTVSPost2010Prop38
140
0.0
102
RTVSPost2010PropOp38
 70
     1
102
RTVSPost2010Prop39
140
1.0
102
RTVSPost2010PropOp39
 70
     1
102
RTVSPost2010Prop40
 90
        0
102
RTVSPost2010PropOp40
 70
     1
102
RTVSPost2010Prop41ColorIndex
 90
       18
102
RTVSPost2010Prop41ColorRGB
 90
        0
102
RTVSPost2010PropOp41
 70
     1
102
RTVSPost2010Prop42
 90
       50
102
RTVSPost2010PropOp42
 70
     1
102
RTVSPost2010Prop43
 90
        3
102
RTVSPost2010PropOp43
 70
     1
102
RTVSPost2010Prop44ColorIndex
 90
        5
102
RTVSPost2010Prop44ColorRGB
 90
      255
102
RTVSPost2010PropOp44
 70
     1
102
RTVSPost2010Prop45
280
     0
102
RTVSPost2010PropOp45
 70
     1
102
RTVSPost2010Prop46
 90
       50
102
RTVSPost2010PropOp46
 70
     1
102
RTVSPost2010Prop47
 90
       50
102
RTVSPost2010PropOp47
 70
     1
102
RTVSPost2010Prop48
 90
       50
102
RTVSPost2010PropOp48
 70
     1
102
RTVSPost2010Prop49
280
     0
102
RTVSPost2010PropOp49
 70
     1
102
RTVSPost2010Prop50
 90
       50
102
RTVSPost2010PropOp50
 70
     1
102
RTVSPost2010Prop51ColorIndex
 90
      256
102
RTVSPost2010Prop51ColorRGB
 90
-16777216
102
RTVSPost2010PropOp51
 70
     0
102
RTVSPost2010Prop52
140
1.0
102
RTVSPost2010PropOp52
 70
     0
102
RTVSPost2010Prop53
 90
        2
102
RTVSPost2010PropOp53
 70
     1
102
RTVSPost2010Prop54
  1
strokes_ogs.tif
102
RTVSPost2010PropOp54
 70
     1
102
RTVSPost2010Prop55
280
     0
102
RTVSPost2010PropOp55
 70
     1
102
RTVSPost2010Prop56
140
1.0
102
RTVSPost2010PropOp56
 70
     1
102
RTVSPost2010Prop57
140
1.0
102
RTVSPost2010PropOp57
 70
     1
  0
XRECORD
  5
37F
102
{ACAD_REACTORS
330
37E
102
}
330
37E
100
AcDbXrecord
280
     1
102
RTVSPropertyOp0
 70
     1
102
RTVSPropertyOp1
 70
     1
102
RTVSPropertyOp2
 70
     1
102
RTVSPropertyOp3
 70
     1
102
RTVSPropertyOp4
 70
     1
102
RTVSPropertyOp5
 70
     1
102
RTVSPropertyOp6
 70
     1
102
RTVSPropertyOp7
 70
     1
102
RTVSPropertyOp8
 70
     1
102
RTVSPropertyOp9
 70
     1
102
RTVSPropertyOp10
 70
     1
102
RTVSPropertyOp11
 70
     1
102
RTVSPropertyOp12
 70
     1
102
RTVSPropertyOp13
 70
     1
102
RTVSPropertyOp14
 70
     1
102
RTVSPropertyOp15
 70
     1
102
RTVSPropertyOp16
 70
     1
102
RTVSPropertyOp17
 70
     1
102
RTVSPropertyOp18
 70
     1
102
RTVSPropertyOp19
 70
     1
102
RTVSPropertyOp20
 70
     1
102
RTVSPropertyOp21
 70
     1
102
RTVSPropertyOp22
 70
     1
102
RTVSPropertyOp23
 70
     1
102
RTVSPropertyOp24
 70
     1
102
RTVSPropertyOp25
 70
     1
102
RTVSPropertyOp26
 70
     1
102
RTVSPropertyOp27
 70
     1
102
RTVSPropertyOp28
 70
     1
102
RTVSPropertyOp29
 70
     1
102
RTVSPropertyOp30
 70
     1
102
RTVSPropertyOp31
 70
     1
102
RTVSPropertyOp32
 70
     1
102
RTVSPropertyOp33
 70
     1
102
RTVSPropertyOp34
 70
     1
102
RTVSPropertyOp35
 70
     1
102
RTVSPropertyOp36
 70
     1
102
RTVSPropertyOp37
 70
     1
102
RTVSPropertyOp38
 70
     1
102
RTVSPropertyOp39
 70
     1
102
RTVSPropertyOp40
 70
     1
102
RTVSPropertyOp41
 70
     1
102
RTVSPropertyOp42
 70
     1
102
RTVSPropertyOp43
 70
     1
102
RTVSPropertyOp44
 70
     1
102
RTVSPropertyOp45
 70
     1
102
RTVSPropertyOp46
 70
     1
102
RTVSPropertyOp47
 70
     1
102
RTVSPropertyOp48
 70
     1
102
RTVSPropertyOp49
 70
     1
102
RTVSPropertyOp50
 70
     1
102
RTVSPropertyOp51
 70
     0
102
RTVSPropertyOp52
 70
     0
102
RTVSPropertyOp53
 70
     1
102
RTVSPropertyOp54
 70
     1
102
RTVSPropertyOp55
 70
     1
102
RTVSPropertyOp56
 70
     1
102
RTVSPropertyOp57
 70
     1
102
RTVSPost2010Prop28
280
     0
102
RTVSPost2010PropOp28
 70
     1
102
RTVSPost2010Prop29
280
     1
102
RTVSPost2010PropOp29
 70
     1
102
RTVSPost2010Prop30
280
     1
102
RTVSPost2010PropOp30
 70
     1
102
RTVSPost2010Prop31
280
     0
102
RTVSPost2010PropOp31
 70
     1
102
RTVSPost2010Prop32
280
     0
102
RTVSPost2010PropOp32
 70
     1
102
RTVSPost2010Prop33
280
     0
102
RTVSPost2010PropOp33
 70
     1
102
RTVSPost2010Prop34
280
     0
102
RTVSPost2010PropOp34
 70
     1
102
RTVSPost2010Prop35
280
     0
102
RTVSPost2010PropOp35
 70
     1
102
RTVSPost2010Prop36
280
     0
102
RTVSPost2010PropOp36
 70
     1
102
RTVSPost2010Prop37
 90
       50
102
RTVSPost2010PropOp37
 70
     1
102
RTVSPost2010Prop38
140
0.0
102
RTVSPost2010PropOp38
 70
     1
102
RTVSPost2010Prop39
140
1.0
102
RTVSPost2010PropOp39
 70
     1
102
RTVSPost2010Prop40
 90
        0
102
RTVSPost2010PropOp40
 70
     1
102
RTVSPost2010Prop41ColorIndex
 90
       18
102
RTVSPost2010Prop41ColorRGB
 90
        0
102
RTVSPost2010PropOp41
 70
     1
102
RTVSPost2010Prop42
 90
       50
102
RTVSPost2010PropOp42
 70
     1
102
RTVSPost2010Prop43
 90
        3
102
RTVSPost2010PropOp43
 70
     1
102
RTVSPost2010Prop44ColorIndex
 90
        5
102
RTVSPost2010Prop44ColorRGB
 90
      255
102
RTVSPost2010PropOp44
 70
     1
102
RTVSPost2010Prop45
280
     0
102
RTVSPost2010PropOp45
 70
     1
102
RTVSPost2010Prop46
 90
       50
102
RTVSPost2010PropOp46
 70
     1
102
RTVSPost2010Prop47
 90
       50
102
RTVSPost2010PropOp47
 70
     1
102
RTVSPost2010Prop48
 90
       50
102
RTVSPost2010PropOp48
 70
     1
102
RTVSPost2010Prop49
280
     0
102
RTVSPost2010PropOp49
 70
     1
102
RTVSPost2010Prop50
 90
       50
102
RTVSPost2010PropOp50
 70
     1
102
RTVSPost2010Prop51ColorIndex
 90
      256
102
RTVSPost2010Prop51ColorRGB
 90
-16777216
102
RTVSPost2010PropOp51
 70
     0
102
RTVSPost2010Prop52
140
1.0
102
RTVSPost2010PropOp52
 70
     0
102
RTVSPost2010Prop53
 90
        2
102
RTVSPost2010PropOp53
 70
     1
102
RTVSPost2010Prop54
  1
strokes_ogs.tif
102
RTVSPost2010PropOp54
 70
     1
102
RTVSPost2010Prop55
280
     0
102
RTVSPost2010PropOp55
 70
     1
102
RTVSPost2010Prop56
140
1.0
102
RTVSPost2010PropOp56
 70
     1
102
RTVSPost2010Prop57
140
1.0
102
RTVSPost2010PropOp57
 70
     1
  0
XRECORD
  5
381
102
{ACAD_REACTORS
330
380
102
}
330
380
100
AcDbXrecord
280
     1
102
RTVSPropertyOp0
 70
     1
102
RTVSPropertyOp1
 70
     1
102
RTVSPropertyOp2
 70
     1
102
RTVSPropertyOp3
 70
     1
102
RTVSPropertyOp4
 70
     1
102
RTVSPropertyOp5
 70
     1
102
RTVSPropertyOp6
 70
     1
102
RTVSPropertyOp7
 70
     1
102
RTVSPropertyOp8
 70
     1
102
RTVSPropertyOp9
 70
     1
102
RTVSPropertyOp10
 70
     1
102
RTVSPropertyOp11
 70
     1
102
RTVSPropertyOp12
 70
     1
102
RTVSPropertyOp13
 70
     1
102
RTVSPropertyOp14
 70
     1
102
RTVSPropertyOp15
 70
     1
102
RTVSPropertyOp16
 70
     1
102
RTVSPropertyOp17
 70
     1
102
RTVSPropertyOp18
 70
     1
102
RTVSPropertyOp19
 70
     1
102
RTVSPropertyOp20
 70
     1
102
RTVSPropertyOp21
 70
     1
102
RTVSPropertyOp22
 70
     1
102
RTVSPropertyOp23
 70
     1
102
RTVSPropertyOp24
 70
     1
102
RTVSPropertyOp25
 70
     1
102
RTVSPropertyOp26
 70
     1
102
RTVSPropertyOp27
 70
     1
102
RTVSPropertyOp28
 70
     1
102
RTVSPropertyOp29
 70
     1
102
RTVSPropertyOp30
 70
     1
102
RTVSPropertyOp31
 70
     1
102
RTVSPropertyOp32
 70
     1
102
RTVSPropertyOp33
 70
     1
102
RTVSPropertyOp34
 70
     1
102
RTVSPropertyOp35
 70
     1
102
RTVSPropertyOp36
 70
     1
102
RTVSPropertyOp37
 70
     1
102
RTVSPropertyOp38
 70
     1
102
RTVSPropertyOp39
 70
     1
102
RTVSPropertyOp40
 70
     1
102
RTVSPropertyOp41
 70
     1
102
RTVSPropertyOp42
 70
     1
102
RTVSPropertyOp43
 70
     1
102
RTVSPropertyOp44
 70
     1
102
RTVSPropertyOp45
 70
     1
102
RTVSPropertyOp46
 70
     1
102
RTVSPropertyOp47
 70
     1
102
RTVSPropertyOp48
 70
     1
102
RTVSPropertyOp49
 70
     1
102
RTVSPropertyOp50
 70
     1
102
RTVSPropertyOp51
 70
     0
102
RTVSPropertyOp52
 70
     0
102
RTVSPropertyOp53
 70
     1
102
RTVSPropertyOp54
 70
     1
102
RTVSPropertyOp55
 70
     1
102
RTVSPropertyOp56
 70
     1
102
RTVSPropertyOp57
 70
     1
102
RTVSPost2010Prop28
280
     0
102
RTVSPost2010PropOp28
 70
     1
102
RTVSPost2010Prop29
280
     1
102
RTVSPost2010PropOp29
 70
     1
102
RTVSPost2010Prop30
280
     1
102
RTVSPost2010PropOp30
 70
     1
102
RTVSPost2010Prop31
280
     0
102
RTVSPost2010PropOp31
 70
     1
102
RTVSPost2010Prop32
280
     0
102
RTVSPost2010PropOp32
 70
     1
102
RTVSPost2010Prop33
280
     0
102
RTVSPost2010PropOp33
 70
     1
102
RTVSPost2010Prop34
280
     0
102
RTVSPost2010PropOp34
 70
     1
102
RTVSPost2010Prop35
280
     0
102
RTVSPost2010PropOp35
 70
     1
102
RTVSPost2010Prop36
280
     0
102
RTVSPost2010PropOp36
 70
     1
102
RTVSPost2010Prop37
 90
       50
102
RTVSPost2010PropOp37
 70
     1
102
RTVSPost2010Prop38
140
0.0
102
RTVSPost2010PropOp38
 70
     1
102
RTVSPost2010Prop39
140
1.0
102
RTVSPost2010PropOp39
 70
     1
102
RTVSPost2010Prop40
 90
        0
102
RTVSPost2010PropOp40
 70
     1
102
RTVSPost2010Prop41ColorIndex
 90
       18
102
RTVSPost2010Prop41ColorRGB
 90
        0
102
RTVSPost2010PropOp41
 70
     1
102
RTVSPost2010Prop42
 90
       50
102
RTVSPost2010PropOp42
 70
     1
102
RTVSPost2010Prop43
 90
        3
102
RTVSPost2010PropOp43
 70
     1
102
RTVSPost2010Prop44ColorIndex
 90
        5
102
RTVSPost2010Prop44ColorRGB
 90
      255
102
RTVSPost2010PropOp44
 70
     1
102
RTVSPost2010Prop45
280
     0
102
RTVSPost2010PropOp45
 70
     1
102
RTVSPost2010Prop46
 90
       50
102
RTVSPost2010PropOp46
 70
     1
102
RTVSPost2010Prop47
 90
       50
102
RTVSPost2010PropOp47
 70
     1
102
RTVSPost2010Prop48
 90
       50
102
RTVSPost2010PropOp48
 70
     1
102
RTVSPost2010Prop49
280
     0
102
RTVSPost2010PropOp49
 70
     1
102
RTVSPost2010Prop50
 90
       50
102
RTVSPost2010PropOp50
 70
     1
102
RTVSPost2010Prop51ColorIndex
 90
      256
102
RTVSPost2010Prop51ColorRGB
 90
-16777216
102
RTVSPost2010PropOp51
 70
     0
102
RTVSPost2010Prop52
140
1.0
102
RTVSPost2010PropOp52
 70
     0
102
RTVSPost2010Prop53
 90
        2
102
RTVSPost2010PropOp53
 70
     1
102
RTVSPost2010Prop54
  1
strokes_ogs.tif
102
RTVSPost2010PropOp54
 70
     1
102
RTVSPost2010Prop55
280
     0
102
RTVSPost2010PropOp55
 70
     1
102
RTVSPost2010Prop56
140
1.0
102
RTVSPost2010PropOp56
 70
     1
102
RTVSPost2010Prop57
140
1.0
102
RTVSPost2010PropOp57
 70
     1
  0
XRECORD
  5
383
102
{ACAD_REACTORS
330
382
102
}
330
382
100
AcDbXrecord
280
     1
102
RTVSPropertyOp0
 70
     1
102
RTVSPropertyOp1
 70
     1
102
RTVSPropertyOp2
 70
     1
102
RTVSPropertyOp3
 70
     1
102
RTVSPropertyOp4
 70
     1
102
RTVSPropertyOp5
 70
     1
102
RTVSPropertyOp6
 70
     1
102
RTVSPropertyOp7
 70
     1
102
RTVSPropertyOp8
 70
     1
102
RTVSPropertyOp9
 70
     1
102
RTVSPropertyOp10
 70
     1
102
RTVSPropertyOp11
 70
     1
102
RTVSPropertyOp12
 70
     1
102
RTVSPropertyOp13
 70
     1
102
RTVSPropertyOp14
 70
     1
102
RTVSPropertyOp15
 70
     1
102
RTVSPropertyOp16
 70
     1
102
RTVSPropertyOp17
 70
     1
102
RTVSPropertyOp18
 70
     1
102
RTVSPropertyOp19
 70
     1
102
RTVSPropertyOp20
 70
     1
102
RTVSPropertyOp21
 70
     1
102
RTVSPropertyOp22
 70
     1
102
RTVSPropertyOp23
 70
     1
102
RTVSPropertyOp24
 70
     1
102
RTVSPropertyOp25
 70
     1
102
RTVSPropertyOp26
 70
     1
102
RTVSPropertyOp27
 70
     1
102
RTVSPropertyOp28
 70
     1
102
RTVSPropertyOp29
 70
     1
102
RTVSPropertyOp30
 70
     1
102
RTVSPropertyOp31
 70
     1
102
RTVSPropertyOp32
 70
     1
102
RTVSPropertyOp33
 70
     1
102
RTVSPropertyOp34
 70
     1
102
RTVSPropertyOp35
 70
     1
102
RTVSPropertyOp36
 70
     1
102
RTVSPropertyOp37
 70
     1
102
RTVSPropertyOp38
 70
     1
102
RTVSPropertyOp39
 70
     1
102
RTVSPropertyOp40
 70
     1
102
RTVSPropertyOp41
 70
     1
102
RTVSPropertyOp42
 70
     1
102
RTVSPropertyOp43
 70
     1
102
RTVSPropertyOp44
 70
     1
102
RTVSPropertyOp45
 70
     1
102
RTVSPropertyOp46
 70
     1
102
RTVSPropertyOp47
 70
     1
102
RTVSPropertyOp48
 70
     1
102
RTVSPropertyOp49
 70
     1
102
RTVSPropertyOp50
 70
     1
102
RTVSPropertyOp51
 70
     0
102
RTVSPropertyOp52
 70
     0
102
RTVSPropertyOp53
 70
     1
102
RTVSPropertyOp54
 70
     1
102
RTVSPropertyOp55
 70
     1
102
RTVSPropertyOp56
 70
     1
102
RTVSPropertyOp57
 70
     1
102
RTVSPost2010Prop28
280
     0
102
RTVSPost2010PropOp28
 70
     1
102
RTVSPost2010Prop29
280
     1
102
RTVSPost2010PropOp29
 70
     1
102
RTVSPost2010Prop30
280
     1
102
RTVSPost2010PropOp30
 70
     1
102
RTVSPost2010Prop31
280
     0
102
RTVSPost2010PropOp31
 70
     1
102
RTVSPost2010Prop32
280
     0
102
RTVSPost2010PropOp32
 70
     1
102
RTVSPost2010Prop33
280
     0
102
RTVSPost2010PropOp33
 70
     1
102
RTVSPost2010Prop34
280
     0
102
RTVSPost2010PropOp34
 70
     1
102
RTVSPost2010Prop35
280
     0
102
RTVSPost2010PropOp35
 70
     1
102
RTVSPost2010Prop36
280
     0
102
RTVSPost2010PropOp36
 70
     1
102
RTVSPost2010Prop37
 90
       50
102
RTVSPost2010PropOp37
 70
     1
102
RTVSPost2010Prop38
140
0.0
102
RTVSPost2010PropOp38
 70
     1
102
RTVSPost2010Prop39
140
1.0
102
RTVSPost2010PropOp39
 70
     1
102
RTVSPost2010Prop40
 90
        0
102
RTVSPost2010PropOp40
 70
     1
102
RTVSPost2010Prop41ColorIndex
 90
       18
102
RTVSPost2010Prop41ColorRGB
 90
        0
102
RTVSPost2010PropOp41
 70
     1
102
RTVSPost2010Prop42
 90
       50
102
RTVSPost2010PropOp42
 70
     1
102
RTVSPost2010Prop43
 90
        3
102
RTVSPost2010PropOp43
 70
     1
102
RTVSPost2010Prop44ColorIndex
 90
        5
102
RTVSPost2010Prop44ColorRGB
 90
      255
102
RTVSPost2010PropOp44
 70
     1
102
RTVSPost2010Prop45
280
     0
102
RTVSPost2010PropOp45
 70
     1
102
RTVSPost2010Prop46
 90
       50
102
RTVSPost2010PropOp46
 70
     1
102
RTVSPost2010Prop47
 90
       50
102
RTVSPost2010PropOp47
 70
     1
102
RTVSPost2010Prop48
 90
       50
102
RTVSPost2010PropOp48
 70
     1
102
RTVSPost2010Prop49
280
     0
102
RTVSPost2010PropOp49
 70
     1
102
RTVSPost2010Prop50
 90
       50
102
RTVSPost2010PropOp50
 70
     1
102
RTVSPost2010Prop51ColorIndex
 90
      256
102
RTVSPost2010Prop51ColorRGB
 90
-16777216
102
RTVSPost2010PropOp51
 70
     0
102
RTVSPost2010Prop52
140
1.0
102
RTVSPost2010PropOp52
 70
     0
102
RTVSPost2010Prop53
 90
        2
102
RTVSPost2010PropOp53
 70
     1
102
RTVSPost2010Prop54
  1
strokes_ogs.tif
102
RTVSPost2010PropOp54
 70
     1
102
RTVSPost2010Prop55
280
     0
102
RTVSPost2010PropOp55
 70
     1
102
RTVSPost2010Prop56
140
1.0
102
RTVSPost2010PropOp56
 70
     1
102
RTVSPost2010Prop57
140
1.0
102
RTVSPost2010PropOp57
 70
     1
  0
XRECORD
  5
385
102
{ACAD_REACTORS
330
384
102
}
330
384
100
AcDbXrecord
280
     1
102
RTVSPropertyOp0
 70
     1
102
RTVSPropertyOp1
 70
     1
102
RTVSPropertyOp2
 70
     1
102
RTVSPropertyOp3
 70
     1
102
RTVSPropertyOp4
 70
     1
102
RTVSPropertyOp5
 70
     1
102
RTVSPropertyOp6
 70
     1
102
RTVSPropertyOp7
 70
     1
102
RTVSPropertyOp8
 70
     1
102
RTVSPropertyOp9
 70
     1
102
RTVSPropertyOp10
 70
     1
102
RTVSPropertyOp11
 70
     1
102
RTVSPropertyOp12
 70
     1
102
RTVSPropertyOp13
 70
     1
102
RTVSPropertyOp14
 70
     1
102
RTVSPropertyOp15
 70
     1
102
RTVSPropertyOp16
 70
     1
102
RTVSPropertyOp17
 70
     1
102
RTVSPropertyOp18
 70
     1
102
RTVSPropertyOp19
 70
     1
102
RTVSPropertyOp20
 70
     1
102
RTVSPropertyOp21
 70
     1
102
RTVSPropertyOp22
 70
     1
102
RTVSPropertyOp23
 70
     1
102
RTVSPropertyOp24
 70
     1
102
RTVSPropertyOp25
 70
     1
102
RTVSPropertyOp26
 70
     1
102
RTVSPropertyOp27
 70
     1
102
RTVSPropertyOp28
 70
     1
102
RTVSPropertyOp29
 70
     1
102
RTVSPropertyOp30
 70
     1
102
RTVSPropertyOp31
 70
     1
102
RTVSPropertyOp32
 70
     1
102
RTVSPropertyOp33
 70
     1
102
RTVSPropertyOp34
 70
     1
102
RTVSPropertyOp35
 70
     1
102
RTVSPropertyOp36
 70
     1
102
RTVSPropertyOp37
 70
     1
102
RTVSPropertyOp38
 70
     1
102
RTVSPropertyOp39
 70
     1
102
RTVSPropertyOp40
 70
     1
102
RTVSPropertyOp41
 70
     1
102
RTVSPropertyOp42
 70
     1
102
RTVSPropertyOp43
 70
     1
102
RTVSPropertyOp44
 70
     1
102
RTVSPropertyOp45
 70
     1
102
RTVSPropertyOp46
 70
     1
102
RTVSPropertyOp47
 70
     1
102
RTVSPropertyOp48
 70
     1
102
RTVSPropertyOp49
 70
     1
102
RTVSPropertyOp50
 70
     1
102
RTVSPropertyOp51
 70
     0
102
RTVSPropertyOp52
 70
     0
102
RTVSPropertyOp53
 70
     1
102
RTVSPropertyOp54
 70
     1
102
RTVSPropertyOp55
 70
     1
102
RTVSPropertyOp56
 70
     1
102
RTVSPropertyOp57
 70
     1
102
RTVSPost2010Prop28
280
     0
102
RTVSPost2010PropOp28
 70
     1
102
RTVSPost2010Prop29
280
     1
102
RTVSPost2010PropOp29
 70
     1
102
RTVSPost2010Prop30
280
     1
102
RTVSPost2010PropOp30
 70
     1
102
RTVSPost2010Prop31
280
     0
102
RTVSPost2010PropOp31
 70
     1
102
RTVSPost2010Prop32
280
     0
102
RTVSPost2010PropOp32
 70
     1
102
RTVSPost2010Prop33
280
     0
102
RTVSPost2010PropOp33
 70
     1
102
RTVSPost2010Prop34
280
     0
102
RTVSPost2010PropOp34
 70
     1
102
RTVSPost2010Prop35
280
     0
102
RTVSPost2010PropOp35
 70
     1
102
RTVSPost2010Prop36
280
     0
102
RTVSPost2010PropOp36
 70
     1
102
RTVSPost2010Prop37
 90
       50
102
RTVSPost2010PropOp37
 70
     1
102
RTVSPost2010Prop38
140
0.0
102
RTVSPost2010PropOp38
 70
     1
102
RTVSPost2010Prop39
140
1.0
102
RTVSPost2010PropOp39
 70
     1
102
RTVSPost2010Prop40
 90
        0
102
RTVSPost2010PropOp40
 70
     1
102
RTVSPost2010Prop41ColorIndex
 90
       18
102
RTVSPost2010Prop41ColorRGB
 90
        0
102
RTVSPost2010PropOp41
 70
     1
102
RTVSPost2010Prop42
 90
       50
102
RTVSPost2010PropOp42
 70
     1
102
RTVSPost2010Prop43
 90
        3
102
RTVSPost2010PropOp43
 70
     1
102
RTVSPost2010Prop44ColorIndex
 90
        5
102
RTVSPost2010Prop44ColorRGB
 90
      255
102
RTVSPost2010PropOp44
 70
     1
102
RTVSPost2010Prop45
280
     0
102
RTVSPost2010PropOp45
 70
     1
102
RTVSPost2010Prop46
 90
       50
102
RTVSPost2010PropOp46
 70
     1
102
RTVSPost2010Prop47
 90
       50
102
RTVSPost2010PropOp47
 70
     1
102
RTVSPost2010Prop48
 90
       50
102
RTVSPost2010PropOp48
 70
     1
102
RTVSPost2010Prop49
280
     0
102
RTVSPost2010PropOp49
 70
     1
102
RTVSPost2010Prop50
 90
       50
102
RTVSPost2010PropOp50
 70
     1
102
RTVSPost2010Prop51ColorIndex
 90
      256
102
RTVSPost2010Prop51ColorRGB
 90
-16777216
102
RTVSPost2010PropOp51
 70
     0
102
RTVSPost2010Prop52
140
1.0
102
RTVSPost2010PropOp52
 70
     0
102
RTVSPost2010Prop53
 90
        2
102
RTVSPost2010PropOp53
 70
     1
102
RTVSPost2010Prop54
  1
strokes_ogs.tif
102
RTVSPost2010PropOp54
 70
     1
102
RTVSPost2010Prop55
280
     0
102
RTVSPost2010PropOp55
 70
     1
102
RTVSPost2010Prop56
140
1.0
102
RTVSPost2010PropOp56
 70
     1
102
RTVSPost2010Prop57
140
1.0
102
RTVSPost2010PropOp57
 70
     1
  0
XRECORD
  5
38B
102
{ACAD_REACTORS
330
38A
102
}
330
38A
100
AcDbXrecord
280
     1
102
RTVSPropertyOp0
 70
     1
102
RTVSPropertyOp1
 70
     1
102
RTVSPropertyOp2
 70
     1
102
RTVSPropertyOp3
 70
     1
102
RTVSPropertyOp4
 70
     1
102
RTVSPropertyOp5
 70
     1
102
RTVSPropertyOp6
 70
     1
102
RTVSPropertyOp7
 70
     1
102
RTVSPropertyOp8
 70
     1
102
RTVSPropertyOp9
 70
     1
102
RTVSPropertyOp10
 70
     1
102
RTVSPropertyOp11
 70
     1
102
RTVSPropertyOp12
 70
     1
102
RTVSPropertyOp13
 70
     1
102
RTVSPropertyOp14
 70
     1
102
RTVSPropertyOp15
 70
     1
102
RTVSPropertyOp16
 70
     1
102
RTVSPropertyOp17
 70
     1
102
RTVSPropertyOp18
 70
     1
102
RTVSPropertyOp19
 70
     1
102
RTVSPropertyOp20
 70
     1
102
RTVSPropertyOp21
 70
     1
102
RTVSPropertyOp22
 70
     1
102
RTVSPropertyOp23
 70
     1
102
RTVSPropertyOp24
 70
     1
102
RTVSPropertyOp25
 70
     1
102
RTVSPropertyOp26
 70
     1
102
RTVSPropertyOp27
 70
     1
102
RTVSPropertyOp28
 70
     1
102
RTVSPropertyOp29
 70
     1
102
RTVSPropertyOp30
 70
     1
102
RTVSPropertyOp31
 70
     1
102
RTVSPropertyOp32
 70
     1
102
RTVSPropertyOp33
 70
     1
102
RTVSPropertyOp34
 70
     1
102
RTVSPropertyOp35
 70
     1
102
RTVSPropertyOp36
 70
     1
102
RTVSPropertyOp37
 70
     1
102
RTVSPropertyOp38
 70
     1
102
RTVSPropertyOp39
 70
     1
102
RTVSPropertyOp40
 70
     1
102
RTVSPropertyOp41
 70
     1
102
RTVSPropertyOp42
 70
     1
102
RTVSPropertyOp43
 70
     1
102
RTVSPropertyOp44
 70
     1
102
RTVSPropertyOp45
 70
     1
102
RTVSPropertyOp46
 70
     1
102
RTVSPropertyOp47
 70
     1
102
RTVSPropertyOp48
 70
     1
102
RTVSPropertyOp49
 70
     1
102
RTVSPropertyOp50
 70
     1
102
RTVSPropertyOp51
 70
     0
102
RTVSPropertyOp52
 70
     0
102
RTVSPropertyOp53
 70
     1
102
RTVSPropertyOp54
 70
     1
102
RTVSPropertyOp55
 70
     1
102
RTVSPropertyOp56
 70
     1
102
RTVSPropertyOp57
 70
     1
102
RTVSPost2010Prop28
280
     0
102
RTVSPost2010PropOp28
 70
     1
102
RTVSPost2010Prop29
280
     1
102
RTVSPost2010PropOp29
 70
     1
102
RTVSPost2010Prop30
280
     1
102
RTVSPost2010PropOp30
 70
     1
102
RTVSPost2010Prop31
280
     0
102
RTVSPost2010PropOp31
 70
     1
102
RTVSPost2010Prop32
280
     0
102
RTVSPost2010PropOp32
 70
     1
102
RTVSPost2010Prop33
280
     0
102
RTVSPost2010PropOp33
 70
     1
102
RTVSPost2010Prop34
280
     0
102
RTVSPost2010PropOp34
 70
     1
102
RTVSPost2010Prop35
280
     0
102
RTVSPost2010PropOp35
 70
     1
102
RTVSPost2010Prop36
280
     0
102
RTVSPost2010PropOp36
 70
     1
102
RTVSPost2010Prop37
 90
       50
102
RTVSPost2010PropOp37
 70
     1
102
RTVSPost2010Prop38
140
0.0
102
RTVSPost2010PropOp38
 70
     1
102
RTVSPost2010Prop39
140
1.0
102
RTVSPost2010PropOp39
 70
     1
102
RTVSPost2010Prop40
 90
        0
102
RTVSPost2010PropOp40
 70
     1
102
RTVSPost2010Prop41ColorIndex
 90
       18
102
RTVSPost2010Prop41ColorRGB
 90
        0
102
RTVSPost2010PropOp41
 70
     1
102
RTVSPost2010Prop42
 90
       50
102
RTVSPost2010PropOp42
 70
     1
102
RTVSPost2010Prop43
 90
        3
102
RTVSPost2010PropOp43
 70
     1
102
RTVSPost2010Prop44ColorIndex
 90
        5
102
RTVSPost2010Prop44ColorRGB
 90
      255
102
RTVSPost2010PropOp44
 70
     1
102
RTVSPost2010Prop45
280
     0
102
RTVSPost2010PropOp45
 70
     1
102
RTVSPost2010Prop46
 90
       50
102
RTVSPost2010PropOp46
 70
     1
102
RTVSPost2010Prop47
 90
       50
102
RTVSPost2010PropOp47
 70
     1
102
RTVSPost2010Prop48
 90
       50
102
RTVSPost2010PropOp48
 70
     1
102
RTVSPost2010Prop49
280
     0
102
RTVSPost2010PropOp49
 70
     1
102
RTVSPost2010Prop50
 90
       50
102
RTVSPost2010PropOp50
 70
     1
102
RTVSPost2010Prop51ColorIndex
 90
      256
102
RTVSPost2010Prop51ColorRGB
 90
-16777216
102
RTVSPost2010PropOp51
 70
     0
102
RTVSPost2010Prop52
140
1.0
102
RTVSPost2010PropOp52
 70
     0
102
RTVSPost2010Prop53
 90
        2
102
RTVSPost2010PropOp53
 70
     1
102
RTVSPost2010Prop54
  1
strokes_ogs.tif
102
RTVSPost2010PropOp54
 70
     1
102
RTVSPost2010Prop55
280
     0
102
RTVSPost2010PropOp55
 70
     1
102
RTVSPost2010Prop56
140
1.0
102
RTVSPost2010PropOp56
 70
     1
102
RTVSPost2010Prop57
140
1.0
102
RTVSPost2010PropOp57
 70
     1
  0
XRECORD
  5
39F
102
{ACAD_REACTORS
330
39E
102
}
330
39E
100
AcDbXrecord
280
     1
102
RTVSPropertyOp0
 70
     0
102
RTVSPropertyOp1
 70
     0
102
RTVSPropertyOp2
 70
     0
102
RTVSPropertyOp3
 70
     0
102
RTVSPropertyOp4
 70
     0
102
RTVSPropertyOp5
 70
     0
102
RTVSPropertyOp6
 70
     0
102
RTVSPropertyOp7
 70
     0
102
RTVSPropertyOp8
 70
     0
102
RTVSPropertyOp9
 70
     0
102
RTVSPropertyOp10
 70
     0
102
RTVSPropertyOp11
 70
     0
102
RTVSPropertyOp12
 70
     0
102
RTVSPropertyOp13
 70
     0
102
RTVSPropertyOp14
 70
     2
102
RTVSPropertyOp15
 70
     0
102
RTVSPropertyOp16
 70
     0
102
RTVSPropertyOp17
 70
     0
102
RTVSPropertyOp18
 70
     0
102
RTVSPropertyOp19
 70
     0
102
RTVSPropertyOp20
 70
     0
102
RTVSPropertyOp21
 70
     0
102
RTVSPropertyOp22
 70
     0
102
RTVSPropertyOp23
 70
     0
102
RTVSPropertyOp24
 70
     0
102
RTVSPropertyOp25
 70
     0
102
RTVSPropertyOp26
 70
     0
102
RTVSPropertyOp27
 70
     0
102
RTVSPropertyOp28
 70
     0
102
RTVSPropertyOp29
 70
     0
102
RTVSPropertyOp30
 70
     0
102
RTVSPropertyOp31
 70
     0
102
RTVSPropertyOp32
 70
     0
102
RTVSPropertyOp33
 70
     0
102
RTVSPropertyOp34
 70
     0
102
RTVSPropertyOp35
 70
     0
102
RTVSPropertyOp36
 70
     0
102
RTVSPropertyOp37
 70
     0
102
RTVSPropertyOp38
 70
     0
102
RTVSPropertyOp39
 70
     0
102
RTVSPropertyOp40
 70
     0
102
RTVSPropertyOp41
 70
     0
102
RTVSPropertyOp42
 70
     0
102
RTVSPropertyOp43
 70
     0
102
RTVSPropertyOp44
 70
     0
102
RTVSPropertyOp45
 70
     0
102
RTVSPropertyOp46
 70
     0
102
RTVSPropertyOp47
 70
     0
102
RTVSPropertyOp48
 70
     0
102
RTVSPropertyOp49
 70
     0
102
RTVSPropertyOp50
 70
     0
102
RTVSPropertyOp51
 70
     0
102
RTVSPropertyOp52
 70
     0
102
RTVSPropertyOp53
 70
     0
102
RTVSPropertyOp54
 70
     0
102
RTVSPropertyOp55
 70
     0
102
RTVSPropertyOp56
 70
     0
102
RTVSPropertyOp57
 70
     0
102
RTVSPost2010Prop28
280
     0
102
RTVSPost2010PropOp28
 70
     0
102
RTVSPost2010Prop29
280
     1
102
RTVSPost2010PropOp29
 70
     0
102
RTVSPost2010Prop30
280
     1
102
RTVSPost2010PropOp30
 70
     0
102
RTVSPost2010Prop31
280
     0
102
RTVSPost2010PropOp31
 70
     0
102
RTVSPost2010Prop32
280
     0
102
RTVSPost2010PropOp32
 70
     0
102
RTVSPost2010Prop33
280
     0
102
RTVSPost2010PropOp33
 70
     0
102
RTVSPost2010Prop34
280
     0
102
RTVSPost2010PropOp34
 70
     0
102
RTVSPost2010Prop35
280
     0
102
RTVSPost2010PropOp35
 70
     0
102
RTVSPost2010Prop36
280
     0
102
RTVSPost2010PropOp36
 70
     0
102
RTVSPost2010Prop37
 90
       50
102
RTVSPost2010PropOp37
 70
     0
102
RTVSPost2010Prop38
140
0.0
102
RTVSPost2010PropOp38
 70
     0
102
RTVSPost2010Prop39
140
1.0
102
RTVSPost2010PropOp39
 70
     0
102
RTVSPost2010Prop40
 90
        0
102
RTVSPost2010PropOp40
 70
     0
102
RTVSPost2010Prop41ColorIndex
 90
       18
102
RTVSPost2010Prop41ColorRGB
 90
        0
102
RTVSPost2010PropOp41
 70
     0
102
RTVSPost2010Prop42
 90
       50
102
RTVSPost2010PropOp42
 70
     0
102
RTVSPost2010Prop43
 90
        3
102
RTVSPost2010PropOp43
 70
     0
102
RTVSPost2010Prop44ColorIndex
 90
        5
102
RTVSPost2010Prop44ColorRGB
 90
      255
102
RTVSPost2010PropOp44
 70
     0
102
RTVSPost2010Prop45
280
     0
102
RTVSPost2010PropOp45
 70
     0
102
RTVSPost2010Prop46
 90
       50
102
RTVSPost2010PropOp46
 70
     0
102
RTVSPost2010Prop47
 90
       50
102
RTVSPost2010PropOp47
 70
     0
102
RTVSPost2010Prop48
 90
       50
102
RTVSPost2010PropOp48
 70
     0
102
RTVSPost2010Prop49
280
     0
102
RTVSPost2010PropOp49
 70
     0
102
RTVSPost2010Prop50
 90
       50
102
RTVSPost2010PropOp50
 70
     0
102
RTVSPost2010Prop51ColorIndex
 90
      256
102
RTVSPost2010Prop51ColorRGB
 90
-16777216
102
RTVSPost2010PropOp51
 70
     0
102
RTVSPost2010Prop52
140
1.0
102
RTVSPost2010PropOp52
 70
     0
102
RTVSPost2010Prop53
 90
        2
102
RTVSPost2010PropOp53
 70
     0
102
RTVSPost2010Prop54
  1
strokes_ogs.tif
102
RTVSPost2010PropOp54
 70
     0
102
RTVSPost2010Prop55
280
     0
102
RTVSPost2010PropOp55
 70
     0
102
RTVSPost2010Prop56
140
1.0
102
RTVSPost2010PropOp56
 70
     0
102
RTVSPost2010Prop57
140
1.0
102
RTVSPost2010PropOp57
 70
     0
  0
XRECORD
  5
399
102
{ACAD_REACTORS
330
398
102
}
330
398
100
AcDbXrecord
280
     1
102
RTVSPropertyOp0
 70
     1
102
RTVSPropertyOp1
 70
     1
102
RTVSPropertyOp2
 70
     1
102
RTVSPropertyOp3
 70
     1
102
RTVSPropertyOp4
 70
     1
102
RTVSPropertyOp5
 70
     1
102
RTVSPropertyOp6
 70
     1
102
RTVSPropertyOp7
 70
     1
102
RTVSPropertyOp8
 70
     1
102
RTVSPropertyOp9
 70
     1
102
RTVSPropertyOp10
 70
     1
102
RTVSPropertyOp11
 70
     1
102
RTVSPropertyOp12
 70
     1
102
RTVSPropertyOp13
 70
     1
102
RTVSPropertyOp14
 70
     1
102
RTVSPropertyOp15
 70
     1
102
RTVSPropertyOp16
 70
     1
102
RTVSPropertyOp17
 70
     1
102
RTVSPropertyOp18
 70
     1
102
RTVSPropertyOp19
 70
     1
102
RTVSPropertyOp20
 70
     1
102
RTVSPropertyOp21
 70
     1
102
RTVSPropertyOp22
 70
     1
102
RTVSPropertyOp23
 70
     1
102
RTVSPropertyOp24
 70
     1
102
RTVSPropertyOp25
 70
     1
102
RTVSPropertyOp26
 70
     1
102
RTVSPropertyOp27
 70
     1
102
RTVSPropertyOp28
 70
     1
102
RTVSPropertyOp29
 70
     1
102
RTVSPropertyOp30
 70
     1
102
RTVSPropertyOp31
 70
     1
102
RTVSPropertyOp32
 70
     1
102
RTVSPropertyOp33
 70
     1
102
RTVSPropertyOp34
 70
     1
102
RTVSPropertyOp35
 70
     1
102
RTVSPropertyOp36
 70
     1
102
RTVSPropertyOp37
 70
     1
102
RTVSPropertyOp38
 70
     1
102
RTVSPropertyOp39
 70
     1
102
RTVSPropertyOp40
 70
     1
102
RTVSPropertyOp41
 70
     1
102
RTVSPropertyOp42
 70
     1
102
RTVSPropertyOp43
 70
     1
102
RTVSPropertyOp44
 70
     1
102
RTVSPropertyOp45
 70
     1
102
RTVSPropertyOp46
 70
     1
102
RTVSPropertyOp47
 70
     1
102
RTVSPropertyOp48
 70
     1
102
RTVSPropertyOp49
 70
     1
102
RTVSPropertyOp50
 70
     1
102
RTVSPropertyOp51
 70
     0
102
RTVSPropertyOp52
 70
     0
102
RTVSPropertyOp53
 70
     1
102
RTVSPropertyOp54
 70
     1
102
RTVSPropertyOp55
 70
     1
102
RTVSPropertyOp56
 70
     1
102
RTVSPropertyOp57
 70
     1
102
RTVSPost2010Prop28
280
     0
102
RTVSPost2010PropOp28
 70
     1
102
RTVSPost2010Prop29
280
     1
102
RTVSPost2010PropOp29
 70
     1
102
RTVSPost2010Prop30
280
     1
102
RTVSPost2010PropOp30
 70
     1
102
RTVSPost2010Prop31
280
     0
102
RTVSPost2010PropOp31
 70
     1
102
RTVSPost2010Prop32
280
     0
102
RTVSPost2010PropOp32
 70
     1
102
RTVSPost2010Prop33
280
     0
102
RTVSPost2010PropOp33
 70
     1
102
RTVSPost2010Prop34
280
     0
102
RTVSPost2010PropOp34
 70
     1
102
RTVSPost2010Prop35
280
     0
102
RTVSPost2010PropOp35
 70
     1
102
RTVSPost2010Prop36
280
     0
102
RTVSPost2010PropOp36
 70
     1
102
RTVSPost2010Prop37
 90
       50
102
RTVSPost2010PropOp37
 70
     1
102
RTVSPost2010Prop38
140
0.0
102
RTVSPost2010PropOp38
 70
     1
102
RTVSPost2010Prop39
140
1.0
102
RTVSPost2010PropOp39
 70
     1
102
RTVSPost2010Prop40
 90
        0
102
RTVSPost2010PropOp40
 70
     1
102
RTVSPost2010Prop41ColorIndex
 90
       18
102
RTVSPost2010Prop41ColorRGB
 90
        0
102
RTVSPost2010PropOp41
 70
     1
102
RTVSPost2010Prop42
 90
       50
102
RTVSPost2010PropOp42
 70
     1
102
RTVSPost2010Prop43
 90
        3
102
RTVSPost2010PropOp43
 70
     1
102
RTVSPost2010Prop44ColorIndex
 90
        5
102
RTVSPost2010Prop44ColorRGB
 90
      255
102
RTVSPost2010PropOp44
 70
     1
102
RTVSPost2010Prop45
280
     0
102
RTVSPost2010PropOp45
 70
     1
102
RTVSPost2010Prop46
 90
       50
102
RTVSPost2010PropOp46
 70
     1
102
RTVSPost2010Prop47
 90
       50
102
RTVSPost2010PropOp47
 70
     1
102
RTVSPost2010Prop48
 90
       50
102
RTVSPost2010PropOp48
 70
     1
102
RTVSPost2010Prop49
280
     0
102
RTVSPost2010PropOp49
 70
     1
102
RTVSPost2010Prop50
 90
       50
102
RTVSPost2010PropOp50
 70
     1
102
RTVSPost2010Prop51ColorIndex
 90
      256
102
RTVSPost2010Prop51ColorRGB
 90
-16777216
102
RTVSPost2010PropOp51
 70
     0
102
RTVSPost2010Prop52
140
1.0
102
RTVSPost2010PropOp52
 70
     0
102
RTVSPost2010Prop53
 90
        2
102
RTVSPost2010PropOp53
 70
     1
102
RTVSPost2010Prop54
  1
strokes_ogs.tif
102
RTVSPost2010PropOp54
 70
     1
102
RTVSPost2010Prop55
280
     0
102
RTVSPost2010PropOp55
 70
     1
102
RTVSPost2010Prop56
140
1.0
102
RTVSPost2010PropOp56
 70
     1
102
RTVSPost2010Prop57
140
1.0
102
RTVSPost2010PropOp57
 70
     1
  0
XRECORD
  5
3A1
102
{ACAD_REACTORS
330
3A0
102
}
330
3A0
100
AcDbXrecord
280
     1
102
RTVSPropertyOp0
 70
     0
102
RTVSPropertyOp1
 70
     0
102
RTVSPropertyOp2
 70
     0
102
RTVSPropertyOp3
 70
     0
102
RTVSPropertyOp4
 70
     0
102
RTVSPropertyOp5
 70
     0
102
RTVSPropertyOp6
 70
     0
102
RTVSPropertyOp7
 70
     0
102
RTVSPropertyOp8
 70
     0
102
RTVSPropertyOp9
 70
     0
102
RTVSPropertyOp10
 70
     0
102
RTVSPropertyOp11
 70
     0
102
RTVSPropertyOp12
 70
     0
102
RTVSPropertyOp13
 70
     0
102
RTVSPropertyOp14
 70
     2
102
RTVSPropertyOp15
 70
     0
102
RTVSPropertyOp16
 70
     0
102
RTVSPropertyOp17
 70
     0
102
RTVSPropertyOp18
 70
     0
102
RTVSPropertyOp19
 70
     0
102
RTVSPropertyOp20
 70
     0
102
RTVSPropertyOp21
 70
     0
102
RTVSPropertyOp22
 70
     0
102
RTVSPropertyOp23
 70
     0
102
RTVSPropertyOp24
 70
     0
102
RTVSPropertyOp25
 70
     0
102
RTVSPropertyOp26
 70
     0
102
RTVSPropertyOp27
 70
     0
102
RTVSPropertyOp28
 70
     0
102
RTVSPropertyOp29
 70
     0
102
RTVSPropertyOp30
 70
     0
102
RTVSPropertyOp31
 70
     0
102
RTVSPropertyOp32
 70
     0
102
RTVSPropertyOp33
 70
     0
102
RTVSPropertyOp34
 70
     0
102
RTVSPropertyOp35
 70
     0
102
RTVSPropertyOp36
 70
     0
102
RTVSPropertyOp37
 70
     0
102
RTVSPropertyOp38
 70
     0
102
RTVSPropertyOp39
 70
     0
102
RTVSPropertyOp40
 70
     0
102
RTVSPropertyOp41
 70
     0
102
RTVSPropertyOp42
 70
     0
102
RTVSPropertyOp43
 70
     0
102
RTVSPropertyOp44
 70
     0
102
RTVSPropertyOp45
 70
     0
102
RTVSPropertyOp46
 70
     0
102
RTVSPropertyOp47
 70
     0
102
RTVSPropertyOp48
 70
     0
102
RTVSPropertyOp49
 70
     0
102
RTVSPropertyOp50
 70
     0
102
RTVSPropertyOp51
 70
     0
102
RTVSPropertyOp52
 70
     0
102
RTVSPropertyOp53
 70
     0
102
RTVSPropertyOp54
 70
     0
102
RTVSPropertyOp55
 70
     0
102
RTVSPropertyOp56
 70
     0
102
RTVSPropertyOp57
 70
     0
102
RTVSPost2010Prop28
280
     0
102
RTVSPost2010PropOp28
 70
     0
102
RTVSPost2010Prop29
280
     1
102
RTVSPost2010PropOp29
 70
     0
102
RTVSPost2010Prop30
280
     1
102
RTVSPost2010PropOp30
 70
     0
102
RTVSPost2010Prop31
280
     0
102
RTVSPost2010PropOp31
 70
     0
102
RTVSPost2010Prop32
280
     0
102
RTVSPost2010PropOp32
 70
     0
102
RTVSPost2010Prop33
280
     0
102
RTVSPost2010PropOp33
 70
     0
102
RTVSPost2010Prop34
280
     0
102
RTVSPost2010PropOp34
 70
     0
102
RTVSPost2010Prop35
280
     0
102
RTVSPost2010PropOp35
 70
     0
102
RTVSPost2010Prop36
280
     0
102
RTVSPost2010PropOp36
 70
     0
102
RTVSPost2010Prop37
 90
       50
102
RTVSPost2010PropOp37
 70
     0
102
RTVSPost2010Prop38
140
0.0
102
RTVSPost2010PropOp38
 70
     0
102
RTVSPost2010Prop39
140
1.0
102
RTVSPost2010PropOp39
 70
     0
102
RTVSPost2010Prop40
 90
        0
102
RTVSPost2010PropOp40
 70
     0
102
RTVSPost2010Prop41ColorIndex
 90
       18
102
RTVSPost2010Prop41ColorRGB
 90
        0
102
RTVSPost2010PropOp41
 70
     0
102
RTVSPost2010Prop42
 90
       50
102
RTVSPost2010PropOp42
 70
     0
102
RTVSPost2010Prop43
 90
        3
102
RTVSPost2010PropOp43
 70
     0
102
RTVSPost2010Prop44ColorIndex
 90
        5
102
RTVSPost2010Prop44ColorRGB
 90
      255
102
RTVSPost2010PropOp44
 70
     0
102
RTVSPost2010Prop45
280
     0
102
RTVSPost2010PropOp45
 70
     0
102
RTVSPost2010Prop46
 90
       50
102
RTVSPost2010PropOp46
 70
     0
102
RTVSPost2010Prop47
 90
       50
102
RTVSPost2010PropOp47
 70
     0
102
RTVSPost2010Prop48
 90
       50
102
RTVSPost2010PropOp48
 70
     0
102
RTVSPost2010Prop49
280
     0
102
RTVSPost2010PropOp49
 70
     0
102
RTVSPost2010Prop50
 90
       50
102
RTVSPost2010PropOp50
 70
     0
102
RTVSPost2010Prop51ColorIndex
 90
      256
102
RTVSPost2010Prop51ColorRGB
 90
-16777216
102
RTVSPost2010PropOp51
 70
     0
102
RTVSPost2010Prop52
140
1.0
102
RTVSPost2010PropOp52
 70
     0
102
RTVSPost2010Prop53
 90
        2
102
RTVSPost2010PropOp53
 70
     0
102
RTVSPost2010Prop54
  1
strokes_ogs.tif
102
RTVSPost2010PropOp54
 70
     0
102
RTVSPost2010Prop55
280
     0
102
RTVSPost2010PropOp55
 70
     0
102
RTVSPost2010Prop56
140
1.0
102
RTVSPost2010PropOp56
 70
     0
102
RTVSPost2010Prop57
140
1.0
102
RTVSPost2010PropOp57
 70
     0
  0
XRECORD
  5
38F
102
{ACAD_REACTORS
330
38E
102
}
330
38E
100
AcDbXrecord
280
     1
102
RTVSPropertyOp0
 70
     1
102
RTVSPropertyOp1
 70
     1
102
RTVSPropertyOp2
 70
     1
102
RTVSPropertyOp3
 70
     1
102
RTVSPropertyOp4
 70
     1
102
RTVSPropertyOp5
 70
     1
102
RTVSPropertyOp6
 70
     1
102
RTVSPropertyOp7
 70
     1
102
RTVSPropertyOp8
 70
     1
102
RTVSPropertyOp9
 70
     1
102
RTVSPropertyOp10
 70
     1
102
RTVSPropertyOp11
 70
     1
102
RTVSPropertyOp12
 70
     1
102
RTVSPropertyOp13
 70
     1
102
RTVSPropertyOp14
 70
     1
102
RTVSPropertyOp15
 70
     1
102
RTVSPropertyOp16
 70
     1
102
RTVSPropertyOp17
 70
     1
102
RTVSPropertyOp18
 70
     1
102
RTVSPropertyOp19
 70
     1
102
RTVSPropertyOp20
 70
     1
102
RTVSPropertyOp21
 70
     1
102
RTVSPropertyOp22
 70
     1
102
RTVSPropertyOp23
 70
     1
102
RTVSPropertyOp24
 70
     1
102
RTVSPropertyOp25
 70
     1
102
RTVSPropertyOp26
 70
     1
102
RTVSPropertyOp27
 70
     1
102
RTVSPropertyOp28
 70
     1
102
RTVSPropertyOp29
 70
     1
102
RTVSPropertyOp30
 70
     1
102
RTVSPropertyOp31
 70
     1
102
RTVSPropertyOp32
 70
     1
102
RTVSPropertyOp33
 70
     1
102
RTVSPropertyOp34
 70
     1
102
RTVSPropertyOp35
 70
     1
102
RTVSPropertyOp36
 70
     1
102
RTVSPropertyOp37
 70
     1
102
RTVSPropertyOp38
 70
     1
102
RTVSPropertyOp39
 70
     1
102
RTVSPropertyOp40
 70
     1
102
RTVSPropertyOp41
 70
     1
102
RTVSPropertyOp42
 70
     1
102
RTVSPropertyOp43
 70
     1
102
RTVSPropertyOp44
 70
     1
102
RTVSPropertyOp45
 70
     1
102
RTVSPropertyOp46
 70
     1
102
RTVSPropertyOp47
 70
     1
102
RTVSPropertyOp48
 70
     1
102
RTVSPropertyOp49
 70
     1
102
RTVSPropertyOp50
 70
     1
102
RTVSPropertyOp51
 70
     0
102
RTVSPropertyOp52
 70
     0
102
RTVSPropertyOp53
 70
     1
102
RTVSPropertyOp54
 70
     1
102
RTVSPropertyOp55
 70
     1
102
RTVSPropertyOp56
 70
     1
102
RTVSPropertyOp57
 70
     1
102
RTVSPost2010Prop28
280
     0
102
RTVSPost2010PropOp28
 70
     1
102
RTVSPost2010Prop29
280
     1
102
RTVSPost2010PropOp29
 70
     1
102
RTVSPost2010Prop30
280
     1
102
RTVSPost2010PropOp30
 70
     1
102
RTVSPost2010Prop31
280
     0
102
RTVSPost2010PropOp31
 70
     1
102
RTVSPost2010Prop32
280
     0
102
RTVSPost2010PropOp32
 70
     1
102
RTVSPost2010Prop33
280
     0
102
RTVSPost2010PropOp33
 70
     1
102
RTVSPost2010Prop34
280
     0
102
RTVSPost2010PropOp34
 70
     1
102
RTVSPost2010Prop35
280
     0
102
RTVSPost2010PropOp35
 70
     1
102
RTVSPost2010Prop36
280
     0
102
RTVSPost2010PropOp36
 70
     1
102
RTVSPost2010Prop37
 90
       50
102
RTVSPost2010PropOp37
 70
     1
102
RTVSPost2010Prop38
140
0.0
102
RTVSPost2010PropOp38
 70
     1
102
RTVSPost2010Prop39
140
1.0
102
RTVSPost2010PropOp39
 70
     1
102
RTVSPost2010Prop40
 90
        0
102
RTVSPost2010PropOp40
 70
     1
102
RTVSPost2010Prop41ColorIndex
 90
       18
102
RTVSPost2010Prop41ColorRGB
 90
        0
102
RTVSPost2010PropOp41
 70
     1
102
RTVSPost2010Prop42
 90
       50
102
RTVSPost2010PropOp42
 70
     1
102
RTVSPost2010Prop43
 90
        3
102
RTVSPost2010PropOp43
 70
     1
102
RTVSPost2010Prop44ColorIndex
 90
        5
102
RTVSPost2010Prop44ColorRGB
 90
      255
102
RTVSPost2010PropOp44
 70
     1
102
RTVSPost2010Prop45
280
     0
102
RTVSPost2010PropOp45
 70
     1
102
RTVSPost2010Prop46
 90
       50
102
RTVSPost2010PropOp46
 70
     1
102
RTVSPost2010Prop47
 90
       50
102
RTVSPost2010PropOp47
 70
     1
102
RTVSPost2010Prop48
 90
       50
102
RTVSPost2010PropOp48
 70
     1
102
RTVSPost2010Prop49
280
     0
102
RTVSPost2010PropOp49
 70
     1
102
RTVSPost2010Prop50
 90
       50
102
RTVSPost2010PropOp50
 70
     1
102
RTVSPost2010Prop51ColorIndex
 90
      256
102
RTVSPost2010Prop51ColorRGB
 90
-16777216
102
RTVSPost2010PropOp51
 70
     0
102
RTVSPost2010Prop52
140
1.0
102
RTVSPost2010PropOp52
 70
     0
102
RTVSPost2010Prop53
 90
        2
102
RTVSPost2010PropOp53
 70
     1
102
RTVSPost2010Prop54
  1
strokes_ogs.tif
102
RTVSPost2010PropOp54
 70
     1
102
RTVSPost2010Prop55
280
     0
102
RTVSPost2010PropOp55
 70
     1
102
RTVSPost2010Prop56
140
1.0
102
RTVSPost2010PropOp56
 70
     1
102
RTVSPost2010Prop57
140
1.0
102
RTVSPost2010PropOp57
 70
     1
  0
XRECORD
  5
3AD
102
{ACAD_REACTORS
330
3AC
102
}
330
3AC
100
AcDbXrecord
280
     1
102
RTVSPropertyOp0
 70
     1
102
RTVSPropertyOp1
 70
     1
102
RTVSPropertyOp2
 70
     1
102
RTVSPropertyOp3
 70
     1
102
RTVSPropertyOp4
 70
     1
102
RTVSPropertyOp5
 70
     1
102
RTVSPropertyOp6
 70
     1
102
RTVSPropertyOp7
 70
     1
102
RTVSPropertyOp8
 70
     1
102
RTVSPropertyOp9
 70
     1
102
RTVSPropertyOp10
 70
     1
102
RTVSPropertyOp11
 70
     1
102
RTVSPropertyOp12
 70
     1
102
RTVSPropertyOp13
 70
     1
102
RTVSPropertyOp14
 70
     1
102
RTVSPropertyOp15
 70
     1
102
RTVSPropertyOp16
 70
     1
102
RTVSPropertyOp17
 70
     1
102
RTVSPropertyOp18
 70
     1
102
RTVSPropertyOp19
 70
     1
102
RTVSPropertyOp20
 70
     1
102
RTVSPropertyOp21
 70
     1
102
RTVSPropertyOp22
 70
     1
102
RTVSPropertyOp23
 70
     1
102
RTVSPropertyOp24
 70
     1
102
RTVSPropertyOp25
 70
     1
102
RTVSPropertyOp26
 70
     1
102
RTVSPropertyOp27
 70
     1
102
RTVSPropertyOp28
 70
     1
102
RTVSPropertyOp29
 70
     1
102
RTVSPropertyOp30
 70
     1
102
RTVSPropertyOp31
 70
     1
102
RTVSPropertyOp32
 70
     1
102
RTVSPropertyOp33
 70
     1
102
RTVSPropertyOp34
 70
     1
102
RTVSPropertyOp35
 70
     1
102
RTVSPropertyOp36
 70
     1
102
RTVSPropertyOp37
 70
     1
102
RTVSPropertyOp38
 70
     1
102
RTVSPropertyOp39
 70
     1
102
RTVSPropertyOp40
 70
     1
102
RTVSPropertyOp41
 70
     1
102
RTVSPropertyOp42
 70
     1
102
RTVSPropertyOp43
 70
     1
102
RTVSPropertyOp44
 70
     1
102
RTVSPropertyOp45
 70
     1
102
RTVSPropertyOp46
 70
     1
102
RTVSPropertyOp47
 70
     1
102
RTVSPropertyOp48
 70
     1
102
RTVSPropertyOp49
 70
     1
102
RTVSPropertyOp50
 70
     1
102
RTVSPropertyOp51
 70
     0
102
RTVSPropertyOp52
 70
     0
102
RTVSPropertyOp53
 70
     1
102
RTVSPropertyOp54
 70
     1
102
RTVSPropertyOp55
 70
     1
102
RTVSPropertyOp56
 70
     1
102
RTVSPropertyOp57
 70
     1
102
RTVSPost2010Prop28
280
     0
102
RTVSPost2010PropOp28
 70
     1
102
RTVSPost2010Prop29
280
     1
102
RTVSPost2010PropOp29
 70
     1
102
RTVSPost2010Prop30
280
     1
102
RTVSPost2010PropOp30
 70
     1
102
RTVSPost2010Prop31
280
     0
102
RTVSPost2010PropOp31
 70
     1
102
RTVSPost2010Prop32
280
     0
102
RTVSPost2010PropOp32
 70
     1
102
RTVSPost2010Prop33
280
     0
102
RTVSPost2010PropOp33
 70
     1
102
RTVSPost2010Prop34
280
     0
102
RTVSPost2010PropOp34
 70
     1
102
RTVSPost2010Prop35
280
     0
102
RTVSPost2010PropOp35
 70
     1
102
RTVSPost2010Prop36
280
     0
102
RTVSPost2010PropOp36
 70
     1
102
RTVSPost2010Prop37
 90
       50
102
RTVSPost2010PropOp37
 70
     1
102
RTVSPost2010Prop38
140
0.0
102
RTVSPost2010PropOp38
 70
     1
102
RTVSPost2010Prop39
140
1.0
102
RTVSPost2010PropOp39
 70
     1
102
RTVSPost2010Prop40
 90
        0
102
RTVSPost2010PropOp40
 70
     1
102
RTVSPost2010Prop41ColorIndex
 90
       18
102
RTVSPost2010Prop41ColorRGB
 90
        0
102
RTVSPost2010PropOp41
 70
     1
102
RTVSPost2010Prop42
 90
       50
102
RTVSPost2010PropOp42
 70
     1
102
RTVSPost2010Prop43
 90
        3
102
RTVSPost2010PropOp43
 70
     1
102
RTVSPost2010Prop44ColorIndex
 90
        5
102
RTVSPost2010Prop44ColorRGB
 90
      255
102
RTVSPost2010PropOp44
 70
     1
102
RTVSPost2010Prop45
280
     0
102
RTVSPost2010PropOp45
 70
     1
102
RTVSPost2010Prop46
 90
       50
102
RTVSPost2010PropOp46
 70
     1
102
RTVSPost2010Prop47
 90
       50
102
RTVSPost2010PropOp47
 70
     1
102
RTVSPost2010Prop48
 90
       50
102
RTVSPost2010PropOp48
 70
     1
102
RTVSPost2010Prop49
280
     0
102
RTVSPost2010PropOp49
 70
     1
102
RTVSPost2010Prop50
 90
       50
102
RTVSPost2010PropOp50
 70
     1
102
RTVSPost2010Prop51ColorIndex
 90
      256
102
RTVSPost2010Prop51ColorRGB
 90
-16777216
102
RTVSPost2010PropOp51
 70
     0
102
RTVSPost2010Prop52
140
1.0
102
RTVSPost2010PropOp52
 70
     0
102
RTVSPost2010Prop53
 90
        2
102
RTVSPost2010PropOp53
 70
     1
102
RTVSPost2010Prop54
  1
strokes_ogs.tif
102
RTVSPost2010PropOp54
 70
     1
102
RTVSPost2010Prop55
280
     0
102
RTVSPost2010PropOp55
 70
     1
102
RTVSPost2010Prop56
140
1.0
102
RTVSPost2010PropOp56
 70
     1
102
RTVSPost2010Prop57
140
1.0
102
RTVSPost2010PropOp57
 70
     1
  0
XRECORD
  5
3AB
102
{ACAD_REACTORS
330
3AA
102
}
330
3AA
100
AcDbXrecord
280
     1
102
RTVSPropertyOp0
 70
     1
102
RTVSPropertyOp1
 70
     1
102
RTVSPropertyOp2
 70
     1
102
RTVSPropertyOp3
 70
     1
102
RTVSPropertyOp4
 70
     1
102
RTVSPropertyOp5
 70
     1
102
RTVSPropertyOp6
 70
     1
102
RTVSPropertyOp7
 70
     1
102
RTVSPropertyOp8
 70
     1
102
RTVSPropertyOp9
 70
     1
102
RTVSPropertyOp10
 70
     1
102
RTVSPropertyOp11
 70
     1
102
RTVSPropertyOp12
 70
     1
102
RTVSPropertyOp13
 70
     1
102
RTVSPropertyOp14
 70
     1
102
RTVSPropertyOp15
 70
     1
102
RTVSPropertyOp16
 70
     1
102
RTVSPropertyOp17
 70
     1
102
RTVSPropertyOp18
 70
     1
102
RTVSPropertyOp19
 70
     1
102
RTVSPropertyOp20
 70
     1
102
RTVSPropertyOp21
 70
     1
102
RTVSPropertyOp22
 70
     1
102
RTVSPropertyOp23
 70
     1
102
RTVSPropertyOp24
 70
     1
102
RTVSPropertyOp25
 70
     1
102
RTVSPropertyOp26
 70
     1
102
RTVSPropertyOp27
 70
     1
102
RTVSPropertyOp28
 70
     1
102
RTVSPropertyOp29
 70
     1
102
RTVSPropertyOp30
 70
     1
102
RTVSPropertyOp31
 70
     1
102
RTVSPropertyOp32
 70
     1
102
RTVSPropertyOp33
 70
     1
102
RTVSPropertyOp34
 70
     1
102
RTVSPropertyOp35
 70
     1
102
RTVSPropertyOp36
 70
     1
102
RTVSPropertyOp37
 70
     1
102
RTVSPropertyOp38
 70
     1
102
RTVSPropertyOp39
 70
     1
102
RTVSPropertyOp40
 70
     1
102
RTVSPropertyOp41
 70
     1
102
RTVSPropertyOp42
 70
     1
102
RTVSPropertyOp43
 70
     1
102
RTVSPropertyOp44
 70
     1
102
RTVSPropertyOp45
 70
     1
102
RTVSPropertyOp46
 70
     1
102
RTVSPropertyOp47
 70
     1
102
RTVSPropertyOp48
 70
     1
102
RTVSPropertyOp49
 70
     1
102
RTVSPropertyOp50
 70
     1
102
RTVSPropertyOp51
 70
     0
102
RTVSPropertyOp52
 70
     0
102
RTVSPropertyOp53
 70
     1
102
RTVSPropertyOp54
 70
     1
102
RTVSPropertyOp55
 70
     1
102
RTVSPropertyOp56
 70
     1
102
RTVSPropertyOp57
 70
     1
102
RTVSPost2010Prop28
280
     0
102
RTVSPost2010PropOp28
 70
     1
102
RTVSPost2010Prop29
280
     1
102
RTVSPost2010PropOp29
 70
     1
102
RTVSPost2010Prop30
280
     1
102
RTVSPost2010PropOp30
 70
     1
102
RTVSPost2010Prop31
280
     0
102
RTVSPost2010PropOp31
 70
     1
102
RTVSPost2010Prop32
280
     0
102
RTVSPost2010PropOp32
 70
     1
102
RTVSPost2010Prop33
280
     0
102
RTVSPost2010PropOp33
 70
     1
102
RTVSPost2010Prop34
280
     0
102
RTVSPost2010PropOp34
 70
     1
102
RTVSPost2010Prop35
280
     0
102
RTVSPost2010PropOp35
 70
     1
102
RTVSPost2010Prop36
280
     0
102
RTVSPost2010PropOp36
 70
     1
102
RTVSPost2010Prop37
 90
       50
102
RTVSPost2010PropOp37
 70
     1
102
RTVSPost2010Prop38
140
0.0
102
RTVSPost2010PropOp38
 70
     1
102
RTVSPost2010Prop39
140
1.0
102
RTVSPost2010PropOp39
 70
     1
102
RTVSPost2010Prop40
 90
        0
102
RTVSPost2010PropOp40
 70
     1
102
RTVSPost2010Prop41ColorIndex
 90
       18
102
RTVSPost2010Prop41ColorRGB
 90
        0
102
RTVSPost2010PropOp41
 70
     1
102
RTVSPost2010Prop42
 90
       50
102
RTVSPost2010PropOp42
 70
     1
102
RTVSPost2010Prop43
 90
        3
102
RTVSPost2010PropOp43
 70
     1
102
RTVSPost2010Prop44ColorIndex
 90
        5
102
RTVSPost2010Prop44ColorRGB
 90
      255
102
RTVSPost2010PropOp44
 70
     1
102
RTVSPost2010Prop45
280
     0
102
RTVSPost2010PropOp45
 70
     1
102
RTVSPost2010Prop46
 90
       50
102
RTVSPost2010PropOp46
 70
     1
102
RTVSPost2010Prop47
 90
       50
102
RTVSPost2010PropOp47
 70
     1
102
RTVSPost2010Prop48
 90
       50
102
RTVSPost2010PropOp48
 70
     1
102
RTVSPost2010Prop49
280
     0
102
RTVSPost2010PropOp49
 70
     1
102
RTVSPost2010Prop50
 90
       50
102
RTVSPost2010PropOp50
 70
     1
102
RTVSPost2010Prop51ColorIndex
 90
      256
102
RTVSPost2010Prop51ColorRGB
 90
-16777216
102
RTVSPost2010PropOp51
 70
     0
102
RTVSPost2010Prop52
140
1.0
102
RTVSPost2010PropOp52
 70
     0
102
RTVSPost2010Prop53
 90
        2
102
RTVSPost2010PropOp53
 70
     1
102
RTVSPost2010Prop54
  1
strokes_ogs.tif
102
RTVSPost2010PropOp54
 70
     1
102
RTVSPost2010Prop55
280
     0
102
RTVSPost2010PropOp55
 70
     1
102
RTVSPost2010Prop56
140
1.0
102
RTVSPost2010PropOp56
 70
     1
102
RTVSPost2010Prop57
140
1.0
102
RTVSPost2010PropOp57
 70
     1
  0
XRECORD
  5
3A5
102
{ACAD_REACTORS
330
3A4
102
}
330
3A4
100
AcDbXrecord
280
     1
102
RTVSPropertyOp0
 70
     1
102
RTVSPropertyOp1
 70
     1
102
RTVSPropertyOp2
 70
     1
102
RTVSPropertyOp3
 70
     1
102
RTVSPropertyOp4
 70
     1
102
RTVSPropertyOp5
 70
     1
102
RTVSPropertyOp6
 70
     1
102
RTVSPropertyOp7
 70
     1
102
RTVSPropertyOp8
 70
     1
102
RTVSPropertyOp9
 70
     1
102
RTVSPropertyOp10
 70
     1
102
RTVSPropertyOp11
 70
     1
102
RTVSPropertyOp12
 70
     1
102
RTVSPropertyOp13
 70
     1
102
RTVSPropertyOp14
 70
     1
102
RTVSPropertyOp15
 70
     1
102
RTVSPropertyOp16
 70
     1
102
RTVSPropertyOp17
 70
     1
102
RTVSPropertyOp18
 70
     1
102
RTVSPropertyOp19
 70
     1
102
RTVSPropertyOp20
 70
     1
102
RTVSPropertyOp21
 70
     1
102
RTVSPropertyOp22
 70
     1
102
RTVSPropertyOp23
 70
     1
102
RTVSPropertyOp24
 70
     1
102
RTVSPropertyOp25
 70
     1
102
RTVSPropertyOp26
 70
     1
102
RTVSPropertyOp27
 70
     1
102
RTVSPropertyOp28
 70
     1
102
RTVSPropertyOp29
 70
     1
102
RTVSPropertyOp30
 70
     1
102
RTVSPropertyOp31
 70
     1
102
RTVSPropertyOp32
 70
     1
102
RTVSPropertyOp33
 70
     1
102
RTVSPropertyOp34
 70
     1
102
RTVSPropertyOp35
 70
     1
102
RTVSPropertyOp36
 70
     1
102
RTVSPropertyOp37
 70
     1
102
RTVSPropertyOp38
 70
     1
102
RTVSPropertyOp39
 70
     1
102
RTVSPropertyOp40
 70
     1
102
RTVSPropertyOp41
 70
     1
102
RTVSPropertyOp42
 70
     1
102
RTVSPropertyOp43
 70
     1
102
RTVSPropertyOp44
 70
     1
102
RTVSPropertyOp45
 70
     1
102
RTVSPropertyOp46
 70
     1
102
RTVSPropertyOp47
 70
     1
102
RTVSPropertyOp48
 70
     1
102
RTVSPropertyOp49
 70
     1
102
RTVSPropertyOp50
 70
     1
102
RTVSPropertyOp51
 70
     0
102
RTVSPropertyOp52
 70
     0
102
RTVSPropertyOp53
 70
     1
102
RTVSPropertyOp54
 70
     1
102
RTVSPropertyOp55
 70
     1
102
RTVSPropertyOp56
 70
     1
102
RTVSPropertyOp57
 70
     1
102
RTVSPost2010Prop28
280
     0
102
RTVSPost2010PropOp28
 70
     1
102
RTVSPost2010Prop29
280
     1
102
RTVSPost2010PropOp29
 70
     1
102
RTVSPost2010Prop30
280
     1
102
RTVSPost2010PropOp30
 70
     1
102
RTVSPost2010Prop31
280
     0
102
RTVSPost2010PropOp31
 70
     1
102
RTVSPost2010Prop32
280
     0
102
RTVSPost2010PropOp32
 70
     1
102
RTVSPost2010Prop33
280
     0
102
RTVSPost2010PropOp33
 70
     1
102
RTVSPost2010Prop34
280
     0
102
RTVSPost2010PropOp34
 70
     1
102
RTVSPost2010Prop35
280
     0
102
RTVSPost2010PropOp35
 70
     1
102
RTVSPost2010Prop36
280
     0
102
RTVSPost2010PropOp36
 70
     1
102
RTVSPost2010Prop37
 90
       50
102
RTVSPost2010PropOp37
 70
     1
102
RTVSPost2010Prop38
140
0.0
102
RTVSPost2010PropOp38
 70
     1
102
RTVSPost2010Prop39
140
1.0
102
RTVSPost2010PropOp39
 70
     1
102
RTVSPost2010Prop40
 90
        0
102
RTVSPost2010PropOp40
 70
     1
102
RTVSPost2010Prop41ColorIndex
 90
       18
102
RTVSPost2010Prop41ColorRGB
 90
        0
102
RTVSPost2010PropOp41
 70
     1
102
RTVSPost2010Prop42
 90
       50
102
RTVSPost2010PropOp42
 70
     1
102
RTVSPost2010Prop43
 90
        3
102
RTVSPost2010PropOp43
 70
     1
102
RTVSPost2010Prop44ColorIndex
 90
        5
102
RTVSPost2010Prop44ColorRGB
 90
      255
102
RTVSPost2010PropOp44
 70
     1
102
RTVSPost2010Prop45
280
     0
102
RTVSPost2010PropOp45
 70
     1
102
RTVSPost2010Prop46
 90
       50
102
RTVSPost2010PropOp46
 70
     1
102
RTVSPost2010Prop47
 90
       50
102
RTVSPost2010PropOp47
 70
     1
102
RTVSPost2010Prop48
 90
       50
102
RTVSPost2010PropOp48
 70
     1
102
RTVSPost2010Prop49
280
     0
102
RTVSPost2010PropOp49
 70
     1
102
RTVSPost2010Prop50
 90
       50
102
RTVSPost2010PropOp50
 70
     1
102
RTVSPost2010Prop51ColorIndex
 90
      256
102
RTVSPost2010Prop51ColorRGB
 90
-16777216
102
RTVSPost2010PropOp51
 70
     0
102
RTVSPost2010Prop52
140
1.0
102
RTVSPost2010PropOp52
 70
     0
102
RTVSPost2010Prop53
 90
        2
102
RTVSPost2010PropOp53
 70
     1
102
RTVSPost2010Prop54
  1
strokes_ogs.tif
102
RTVSPost2010PropOp54
 70
     1
102
RTVSPost2010Prop55
280
     0
102
RTVSPost2010PropOp55
 70
     1
102
RTVSPost2010Prop56
140
1.0
102
RTVSPost2010PropOp56
 70
     1
102
RTVSPost2010Prop57
140
1.0
102
RTVSPost2010PropOp57
 70
     1
  0
XRECORD
  5
3A7
102
{ACAD_REACTORS
330
3A6
102
}
330
3A6
100
AcDbXrecord
280
     1
102
RTVSPropertyOp0
 70
     1
102
RTVSPropertyOp1
 70
     1
102
RTVSPropertyOp2
 70
     1
102
RTVSPropertyOp3
 70
     1
102
RTVSPropertyOp4
 70
     1
102
RTVSPropertyOp5
 70
     1
102
RTVSPropertyOp6
 70
     1
102
RTVSPropertyOp7
 70
     1
102
RTVSPropertyOp8
 70
     1
102
RTVSPropertyOp9
 70
     1
102
RTVSPropertyOp10
 70
     1
102
RTVSPropertyOp11
 70
     1
102
RTVSPropertyOp12
 70
     1
102
RTVSPropertyOp13
 70
     1
102
RTVSPropertyOp14
 70
     1
102
RTVSPropertyOp15
 70
     1
102
RTVSPropertyOp16
 70
     1
102
RTVSPropertyOp17
 70
     1
102
RTVSPropertyOp18
 70
     1
102
RTVSPropertyOp19
 70
     1
102
RTVSPropertyOp20
 70
     1
102
RTVSPropertyOp21
 70
     1
102
RTVSPropertyOp22
 70
     1
102
RTVSPropertyOp23
 70
     1
102
RTVSPropertyOp24
 70
     1
102
RTVSPropertyOp25
 70
     1
102
RTVSPropertyOp26
 70
     1
102
RTVSPropertyOp27
 70
     1
102
RTVSPropertyOp28
 70
     1
102
RTVSPropertyOp29
 70
     1
102
RTVSPropertyOp30
 70
     1
102
RTVSPropertyOp31
 70
     1
102
RTVSPropertyOp32
 70
     1
102
RTVSPropertyOp33
 70
     1
102
RTVSPropertyOp34
 70
     1
102
RTVSPropertyOp35
 70
     1
102
RTVSPropertyOp36
 70
     1
102
RTVSPropertyOp37
 70
     1
102
RTVSPropertyOp38
 70
     1
102
RTVSPropertyOp39
 70
     1
102
RTVSPropertyOp40
 70
     1
102
RTVSPropertyOp41
 70
     1
102
RTVSPropertyOp42
 70
     1
102
RTVSPropertyOp43
 70
     1
102
RTVSPropertyOp44
 70
     1
102
RTVSPropertyOp45
 70
     1
102
RTVSPropertyOp46
 70
     1
102
RTVSPropertyOp47
 70
     1
102
RTVSPropertyOp48
 70
     1
102
RTVSPropertyOp49
 70
     1
102
RTVSPropertyOp50
 70
     1
102
RTVSPropertyOp51
 70
     0
102
RTVSPropertyOp52
 70
     0
102
RTVSPropertyOp53
 70
     1
102
RTVSPropertyOp54
 70
     1
102
RTVSPropertyOp55
 70
     1
102
RTVSPropertyOp56
 70
     1
102
RTVSPropertyOp57
 70
     1
102
RTVSPost2010Prop28
280
     0
102
RTVSPost2010PropOp28
 70
     1
102
RTVSPost2010Prop29
280
     1
102
RTVSPost2010PropOp29
 70
     1
102
RTVSPost2010Prop30
280
     1
102
RTVSPost2010PropOp30
 70
     1
102
RTVSPost2010Prop31
280
     0
102
RTVSPost2010PropOp31
 70
     1
102
RTVSPost2010Prop32
280
     0
102
RTVSPost2010PropOp32
 70
     1
102
RTVSPost2010Prop33
280
     0
102
RTVSPost2010PropOp33
 70
     1
102
RTVSPost2010Prop34
280
     0
102
RTVSPost2010PropOp34
 70
     1
102
RTVSPost2010Prop35
280
     0
102
RTVSPost2010PropOp35
 70
     1
102
RTVSPost2010Prop36
280
     0
102
RTVSPost2010PropOp36
 70
     1
102
RTVSPost2010Prop37
 90
       50
102
RTVSPost2010PropOp37
 70
     1
102
RTVSPost2010Prop38
140
0.0
102
RTVSPost2010PropOp38
 70
     1
102
RTVSPost2010Prop39
140
1.0
102
RTVSPost2010PropOp39
 70
     1
102
RTVSPost2010Prop40
 90
        0
102
RTVSPost2010PropOp40
 70
     1
102
RTVSPost2010Prop41ColorIndex
 90
       18
102
RTVSPost2010Prop41ColorRGB
 90
        0
102
RTVSPost2010PropOp41
 70
     1
102
RTVSPost2010Prop42
 90
       50
102
RTVSPost2010PropOp42
 70
     1
102
RTVSPost2010Prop43
 90
        3
102
RTVSPost2010PropOp43
 70
     1
102
RTVSPost2010Prop44ColorIndex
 90
        5
102
RTVSPost2010Prop44ColorRGB
 90
      255
102
RTVSPost2010PropOp44
 70
     1
102
RTVSPost2010Prop45
280
     0
102
RTVSPost2010PropOp45
 70
     1
102
RTVSPost2010Prop46
 90
       50
102
RTVSPost2010PropOp46
 70
     1
102
RTVSPost2010Prop47
 90
       50
102
RTVSPost2010PropOp47
 70
     1
102
RTVSPost2010Prop48
 90
       50
102
RTVSPost2010PropOp48
 70
     1
102
RTVSPost2010Prop49
280
     0
102
RTVSPost2010PropOp49
 70
     1
102
RTVSPost2010Prop50
 90
       50
102
RTVSPost2010PropOp50
 70
     1
102
RTVSPost2010Prop51ColorIndex
 90
      256
102
RTVSPost2010Prop51ColorRGB
 90
-16777216
102
RTVSPost2010PropOp51
 70
     0
102
RTVSPost2010Prop52
140
1.0
102
RTVSPost2010PropOp52
 70
     0
102
RTVSPost2010Prop53
 90
        2
102
RTVSPost2010PropOp53
 70
     1
102
RTVSPost2010Prop54
  1
strokes_ogs.tif
102
RTVSPost2010PropOp54
 70
     1
102
RTVSPost2010Prop55
280
     0
102
RTVSPost2010PropOp55
 70
     1
102
RTVSPost2010Prop56
140
1.0
102
RTVSPost2010PropOp56
 70
     1
102
RTVSPost2010Prop57
140
1.0
102
RTVSPost2010PropOp57
 70
     1
  0
XRECORD
  5
397
102
{ACAD_REACTORS
330
396
102
}
330
396
100
AcDbXrecord
280
     1
102
RTVSPropertyOp0
 70
     1
102
RTVSPropertyOp1
 70
     1
102
RTVSPropertyOp2
 70
     1
102
RTVSPropertyOp3
 70
     1
102
RTVSPropertyOp4
 70
     1
102
RTVSPropertyOp5
 70
     1
102
RTVSPropertyOp6
 70
     1
102
RTVSPropertyOp7
 70
     1
102
RTVSPropertyOp8
 70
     1
102
RTVSPropertyOp9
 70
     1
102
RTVSPropertyOp10
 70
     1
102
RTVSPropertyOp11
 70
     1
102
RTVSPropertyOp12
 70
     1
102
RTVSPropertyOp13
 70
     1
102
RTVSPropertyOp14
 70
     1
102
RTVSPropertyOp15
 70
     1
102
RTVSPropertyOp16
 70
     1
102
RTVSPropertyOp17
 70
     1
102
RTVSPropertyOp18
 70
     1
102
RTVSPropertyOp19
 70
     1
102
RTVSPropertyOp20
 70
     1
102
RTVSPropertyOp21
 70
     1
102
RTVSPropertyOp22
 70
     1
102
RTVSPropertyOp23
 70
     1
102
RTVSPropertyOp24
 70
     1
102
RTVSPropertyOp25
 70
     1
102
RTVSPropertyOp26
 70
     1
102
RTVSPropertyOp27
 70
     1
102
RTVSPropertyOp28
 70
     1
102
RTVSPropertyOp29
 70
     1
102
RTVSPropertyOp30
 70
     1
102
RTVSPropertyOp31
 70
     1
102
RTVSPropertyOp32
 70
     1
102
RTVSPropertyOp33
 70
     1
102
RTVSPropertyOp34
 70
     1
102
RTVSPropertyOp35
 70
     1
102
RTVSPropertyOp36
 70
     1
102
RTVSPropertyOp37
 70
     1
102
RTVSPropertyOp38
 70
     1
102
RTVSPropertyOp39
 70
     1
102
RTVSPropertyOp40
 70
     1
102
RTVSPropertyOp41
 70
     1
102
RTVSPropertyOp42
 70
     1
102
RTVSPropertyOp43
 70
     1
102
RTVSPropertyOp44
 70
     1
102
RTVSPropertyOp45
 70
     1
102
RTVSPropertyOp46
 70
     1
102
RTVSPropertyOp47
 70
     1
102
RTVSPropertyOp48
 70
     1
102
RTVSPropertyOp49
 70
     1
102
RTVSPropertyOp50
 70
     1
102
RTVSPropertyOp51
 70
     0
102
RTVSPropertyOp52
 70
     0
102
RTVSPropertyOp53
 70
     1
102
RTVSPropertyOp54
 70
     1
102
RTVSPropertyOp55
 70
     1
102
RTVSPropertyOp56
 70
     1
102
RTVSPropertyOp57
 70
     1
102
RTVSPost2010Prop28
280
     0
102
RTVSPost2010PropOp28
 70
     1
102
RTVSPost2010Prop29
280
     1
102
RTVSPost2010PropOp29
 70
     1
102
RTVSPost2010Prop30
280
     1
102
RTVSPost2010PropOp30
 70
     1
102
RTVSPost2010Prop31
280
     0
102
RTVSPost2010PropOp31
 70
     1
102
RTVSPost2010Prop32
280
     0
102
RTVSPost2010PropOp32
 70
     1
102
RTVSPost2010Prop33
280
     0
102
RTVSPost2010PropOp33
 70
     1
102
RTVSPost2010Prop34
280
     0
102
RTVSPost2010PropOp34
 70
     1
102
RTVSPost2010Prop35
280
     0
102
RTVSPost2010PropOp35
 70
     1
102
RTVSPost2010Prop36
280
     0
102
RTVSPost2010PropOp36
 70
     1
102
RTVSPost2010Prop37
 90
       50
102
RTVSPost2010PropOp37
 70
     1
102
RTVSPost2010Prop38
140
0.0
102
RTVSPost2010PropOp38
 70
     1
102
RTVSPost2010Prop39
140
1.0
102
RTVSPost2010PropOp39
 70
     1
102
RTVSPost2010Prop40
 90
        0
102
RTVSPost2010PropOp40
 70
     1
102
RTVSPost2010Prop41ColorIndex
 90
       18
102
RTVSPost2010Prop41ColorRGB
 90
        0
102
RTVSPost2010PropOp41
 70
     1
102
RTVSPost2010Prop42
 90
       50
102
RTVSPost2010PropOp42
 70
     1
102
RTVSPost2010Prop43
 90
        3
102
RTVSPost2010PropOp43
 70
     1
102
RTVSPost2010Prop44ColorIndex
 90
        5
102
RTVSPost2010Prop44ColorRGB
 90
      255
102
RTVSPost2010PropOp44
 70
     1
102
RTVSPost2010Prop45
280
     0
102
RTVSPost2010PropOp45
 70
     1
102
RTVSPost2010Prop46
 90
       50
102
RTVSPost2010PropOp46
 70
     1
102
RTVSPost2010Prop47
 90
       50
102
RTVSPost2010PropOp47
 70
     1
102
RTVSPost2010Prop48
 90
       50
102
RTVSPost2010PropOp48
 70
     1
102
RTVSPost2010Prop49
280
     0
102
RTVSPost2010PropOp49
 70
     1
102
RTVSPost2010Prop50
 90
       50
102
RTVSPost2010PropOp50
 70
     1
102
RTVSPost2010Prop51ColorIndex
 90
      256
102
RTVSPost2010Prop51ColorRGB
 90
-16777216
102
RTVSPost2010PropOp51
 70
     0
102
RTVSPost2010Prop52
140
1.0
102
RTVSPost2010PropOp52
 70
     0
102
RTVSPost2010Prop53
 90
        2
102
RTVSPost2010PropOp53
 70
     1
102
RTVSPost2010Prop54
  1
strokes_ogs.tif
102
RTVSPost2010PropOp54
 70
     1
102
RTVSPost2010Prop55
280
     0
102
RTVSPost2010PropOp55
 70
     1
102
RTVSPost2010Prop56
140
1.0
102
RTVSPost2010PropOp56
 70
     1
102
RTVSPost2010Prop57
140
1.0
102
RTVSPost2010PropOp57
 70
     1
  0
XRECORD
  5
389
102
{ACAD_REACTORS
330
388
102
}
330
388
100
AcDbXrecord
280
     1
102
RTVSPropertyOp0
 70
     1
102
RTVSPropertyOp1
 70
     1
102
RTVSPropertyOp2
 70
     1
102
RTVSPropertyOp3
 70
     1
102
RTVSPropertyOp4
 70
     1
102
RTVSPropertyOp5
 70
     1
102
RTVSPropertyOp6
 70
     1
102
RTVSPropertyOp7
 70
     1
102
RTVSPropertyOp8
 70
     1
102
RTVSPropertyOp9
 70
     1
102
RTVSPropertyOp10
 70
     1
102
RTVSPropertyOp11
 70
     1
102
RTVSPropertyOp12
 70
     1
102
RTVSPropertyOp13
 70
     1
102
RTVSPropertyOp14
 70
     1
102
RTVSPropertyOp15
 70
     1
102
RTVSPropertyOp16
 70
     1
102
RTVSPropertyOp17
 70
     1
102
RTVSPropertyOp18
 70
     1
102
RTVSPropertyOp19
 70
     1
102
RTVSPropertyOp20
 70
     1
102
RTVSPropertyOp21
 70
     1
102
RTVSPropertyOp22
 70
     1
102
RTVSPropertyOp23
 70
     1
102
RTVSPropertyOp24
 70
     1
102
RTVSPropertyOp25
 70
     1
102
RTVSPropertyOp26
 70
     1
102
RTVSPropertyOp27
 70
     1
102
RTVSPropertyOp28
 70
     1
102
RTVSPropertyOp29
 70
     1
102
RTVSPropertyOp30
 70
     1
102
RTVSPropertyOp31
 70
     1
102
RTVSPropertyOp32
 70
     1
102
RTVSPropertyOp33
 70
     1
102
RTVSPropertyOp34
 70
     1
102
RTVSPropertyOp35
 70
     1
102
RTVSPropertyOp36
 70
     1
102
RTVSPropertyOp37
 70
     1
102
RTVSPropertyOp38
 70
     1
102
RTVSPropertyOp39
 70
     1
102
RTVSPropertyOp40
 70
     1
102
RTVSPropertyOp41
 70
     1
102
RTVSPropertyOp42
 70
     1
102
RTVSPropertyOp43
 70
     1
102
RTVSPropertyOp44
 70
     1
102
RTVSPropertyOp45
 70
     1
102
RTVSPropertyOp46
 70
     1
102
RTVSPropertyOp47
 70
     1
102
RTVSPropertyOp48
 70
     1
102
RTVSPropertyOp49
 70
     1
102
RTVSPropertyOp50
 70
     1
102
RTVSPropertyOp51
 70
     0
102
RTVSPropertyOp52
 70
     0
102
RTVSPropertyOp53
 70
     1
102
RTVSPropertyOp54
 70
     1
102
RTVSPropertyOp55
 70
     1
102
RTVSPropertyOp56
 70
     1
102
RTVSPropertyOp57
 70
     1
102
RTVSPost2010Prop28
280
     0
102
RTVSPost2010PropOp28
 70
     1
102
RTVSPost2010Prop29
280
     1
102
RTVSPost2010PropOp29
 70
     1
102
RTVSPost2010Prop30
280
     1
102
RTVSPost2010PropOp30
 70
     1
102
RTVSPost2010Prop31
280
     0
102
RTVSPost2010PropOp31
 70
     1
102
RTVSPost2010Prop32
280
     0
102
RTVSPost2010PropOp32
 70
     1
102
RTVSPost2010Prop33
280
     0
102
RTVSPost2010PropOp33
 70
     1
102
RTVSPost2010Prop34
280
     0
102
RTVSPost2010PropOp34
 70
     1
102
RTVSPost2010Prop35
280
     0
102
RTVSPost2010PropOp35
 70
     1
102
RTVSPost2010Prop36
280
     0
102
RTVSPost2010PropOp36
 70
     1
102
RTVSPost2010Prop37
 90
       50
102
RTVSPost2010PropOp37
 70
     1
102
RTVSPost2010Prop38
140
0.0
102
RTVSPost2010PropOp38
 70
     1
102
RTVSPost2010Prop39
140
1.0
102
RTVSPost2010PropOp39
 70
     1
102
RTVSPost2010Prop40
 90
        0
102
RTVSPost2010PropOp40
 70
     1
102
RTVSPost2010Prop41ColorIndex
 90
       18
102
RTVSPost2010Prop41ColorRGB
 90
        0
102
RTVSPost2010PropOp41
 70
     1
102
RTVSPost2010Prop42
 90
       50
102
RTVSPost2010PropOp42
 70
     1
102
RTVSPost2010Prop43
 90
        3
102
RTVSPost2010PropOp43
 70
     1
102
RTVSPost2010Prop44ColorIndex
 90
        5
102
RTVSPost2010Prop44ColorRGB
 90
      255
102
RTVSPost2010PropOp44
 70
     1
102
RTVSPost2010Prop45
280
     0
102
RTVSPost2010PropOp45
 70
     1
102
RTVSPost2010Prop46
 90
       50
102
RTVSPost2010PropOp46
 70
     1
102
RTVSPost2010Prop47
 90
       50
102
RTVSPost2010PropOp47
 70
     1
102
RTVSPost2010Prop48
 90
       50
102
RTVSPost2010PropOp48
 70
     1
102
RTVSPost2010Prop49
280
     0
102
RTVSPost2010PropOp49
 70
     1
102
RTVSPost2010Prop50
 90
       50
102
RTVSPost2010PropOp50
 70
     1
102
RTVSPost2010Prop51ColorIndex
 90
      256
102
RTVSPost2010Prop51ColorRGB
 90
-16777216
102
RTVSPost2010PropOp51
 70
     0
102
RTVSPost2010Prop52
140
1.0
102
RTVSPost2010PropOp52
 70
     0
102
RTVSPost2010Prop53
 90
        2
102
RTVSPost2010PropOp53
 70
     1
102
RTVSPost2010Prop54
  1
strokes_ogs.tif
102
RTVSPost2010PropOp54
 70
     1
102
RTVSPost2010Prop55
280
     0
102
RTVSPost2010PropOp55
 70
     1
102
RTVSPost2010Prop56
140
1.0
102
RTVSPost2010PropOp56
 70
     1
102
RTVSPost2010Prop57
140
1.0
102
RTVSPost2010PropOp57
 70
     1
  0
XRECORD
  5
3A9
102
{ACAD_REACTORS
330
3A8
102
}
330
3A8
100
AcDbXrecord
280
     1
102
RTVSPropertyOp0
 70
     1
102
RTVSPropertyOp1
 70
     1
102
RTVSPropertyOp2
 70
     1
102
RTVSPropertyOp3
 70
     1
102
RTVSPropertyOp4
 70
     1
102
RTVSPropertyOp5
 70
     1
102
RTVSPropertyOp6
 70
     1
102
RTVSPropertyOp7
 70
     1
102
RTVSPropertyOp8
 70
     1
102
RTVSPropertyOp9
 70
     1
102
RTVSPropertyOp10
 70
     1
102
RTVSPropertyOp11
 70
     1
102
RTVSPropertyOp12
 70
     1
102
RTVSPropertyOp13
 70
     1
102
RTVSPropertyOp14
 70
     1
102
RTVSPropertyOp15
 70
     1
102
RTVSPropertyOp16
 70
     1
102
RTVSPropertyOp17
 70
     1
102
RTVSPropertyOp18
 70
     1
102
RTVSPropertyOp19
 70
     1
102
RTVSPropertyOp20
 70
     1
102
RTVSPropertyOp21
 70
     1
102
RTVSPropertyOp22
 70
     1
102
RTVSPropertyOp23
 70
     1
102
RTVSPropertyOp24
 70
     1
102
RTVSPropertyOp25
 70
     1
102
RTVSPropertyOp26
 70
     1
102
RTVSPropertyOp27
 70
     1
102
RTVSPropertyOp28
 70
     1
102
RTVSPropertyOp29
 70
     1
102
RTVSPropertyOp30
 70
     1
102
RTVSPropertyOp31
 70
     1
102
RTVSPropertyOp32
 70
     1
102
RTVSPropertyOp33
 70
     1
102
RTVSPropertyOp34
 70
     1
102
RTVSPropertyOp35
 70
     1
102
RTVSPropertyOp36
 70
     1
102
RTVSPropertyOp37
 70
     1
102
RTVSPropertyOp38
 70
     1
102
RTVSPropertyOp39
 70
     1
102
RTVSPropertyOp40
 70
     1
102
RTVSPropertyOp41
 70
     1
102
RTVSPropertyOp42
 70
     1
102
RTVSPropertyOp43
 70
     1
102
RTVSPropertyOp44
 70
     1
102
RTVSPropertyOp45
 70
     1
102
RTVSPropertyOp46
 70
     1
102
RTVSPropertyOp47
 70
     1
102
RTVSPropertyOp48
 70
     1
102
RTVSPropertyOp49
 70
     1
102
RTVSPropertyOp50
 70
     1
102
RTVSPropertyOp51
 70
     0
102
RTVSPropertyOp52
 70
     0
102
RTVSPropertyOp53
 70
     1
102
RTVSPropertyOp54
 70
     1
102
RTVSPropertyOp55
 70
     1
102
RTVSPropertyOp56
 70
     1
102
RTVSPropertyOp57
 70
     1
102
RTVSPost2010Prop28
280
     0
102
RTVSPost2010PropOp28
 70
     1
102
RTVSPost2010Prop29
280
     1
102
RTVSPost2010PropOp29
 70
     1
102
RTVSPost2010Prop30
280
     1
102
RTVSPost2010PropOp30
 70
     1
102
RTVSPost2010Prop31
280
     0
102
RTVSPost2010PropOp31
 70
     1
102
RTVSPost2010Prop32
280
     0
102
RTVSPost2010PropOp32
 70
     1
102
RTVSPost2010Prop33
280
     0
102
RTVSPost2010PropOp33
 70
     1
102
RTVSPost2010Prop34
280
     0
102
RTVSPost2010PropOp34
 70
     1
102
RTVSPost2010Prop35
280
     0
102
RTVSPost2010PropOp35
 70
     1
102
RTVSPost2010Prop36
280
     0
102
RTVSPost2010PropOp36
 70
     1
102
RTVSPost2010Prop37
 90
       50
102
RTVSPost2010PropOp37
 70
     1
102
RTVSPost2010Prop38
140
0.0
102
RTVSPost2010PropOp38
 70
     1
102
RTVSPost2010Prop39
140
1.0
102
RTVSPost2010PropOp39
 70
     1
102
RTVSPost2010Prop40
 90
        0
102
RTVSPost2010PropOp40
 70
     1
102
RTVSPost2010Prop41ColorIndex
 90
       18
102
RTVSPost2010Prop41ColorRGB
 90
        0
102
RTVSPost2010PropOp41
 70
     1
102
RTVSPost2010Prop42
 90
       50
102
RTVSPost2010PropOp42
 70
     1
102
RTVSPost2010Prop43
 90
        3
102
RTVSPost2010PropOp43
 70
     1
102
RTVSPost2010Prop44ColorIndex
 90
        5
102
RTVSPost2010Prop44ColorRGB
 90
      255
102
RTVSPost2010PropOp44
 70
     1
102
RTVSPost2010Prop45
280
     0
102
RTVSPost2010PropOp45
 70
     1
102
RTVSPost2010Prop46
 90
       50
102
RTVSPost2010PropOp46
 70
     1
102
RTVSPost2010Prop47
 90
       50
102
RTVSPost2010PropOp47
 70
     1
102
RTVSPost2010Prop48
 90
       50
102
RTVSPost2010PropOp48
 70
     1
102
RTVSPost2010Prop49
280
     0
102
RTVSPost2010PropOp49
 70
     1
102
RTVSPost2010Prop50
 90
       50
102
RTVSPost2010PropOp50
 70
     1
102
RTVSPost2010Prop51ColorIndex
 90
      256
102
RTVSPost2010Prop51ColorRGB
 90
-16777216
102
RTVSPost2010PropOp51
 70
     0
102
RTVSPost2010Prop52
140
1.0
102
RTVSPost2010PropOp52
 70
     0
102
RTVSPost2010Prop53
 90
        2
102
RTVSPost2010PropOp53
 70
     1
102
RTVSPost2010Prop54
  1
strokes_ogs.tif
102
RTVSPost2010PropOp54
 70
     1
102
RTVSPost2010Prop55
280
     0
102
RTVSPost2010PropOp55
 70
     1
102
RTVSPost2010Prop56
140
1.0
102
RTVSPost2010PropOp56
 70
     1
102
RTVSPost2010Prop57
140
1.0
102
RTVSPost2010PropOp57
 70
     1
  0
ENDSEC
  0
EOF
