  0
SECTION
  2
HEADER
  9
$ACADVER
  1
AC1015
  9
$ACADMAINTVER
 70
     6
  9
$DWGCODEPAGE
  3
ANSI_932
  9
$INSBASE
 10
0.0
 20
0.0
 30
0.0
  9
$EXTMIN
 10
26.81006024853099
 20
38.31577091142993
 30
0.0
  9
$EXTMAX
 10
374.8958332056719
 20
254.0
 30
0.0
  9
$LIMMIN
 10
26.81006024853099
 20
38.31577091142993
  9
$LIMMAX
 10
374.8958332056719
 20
254.0
  9
$ORTHOMODE
 70
     0
  9
$REGENMODE
 70
     1
  9
$FILLMODE
 70
     1
  9
$QTEXTMODE
 70
     0
  9
$MIRRTEXT
 70
     1
  9
$LTSCALE
 40
1.0
  9
$ATTMODE
 70
     1
  9
$TEXTSIZE
 40
0.2
  9
$TRACEWID
 40
0.05
  9
$TEXTSTYLE
  7
Standard
  9
$CLAYER
  8
0
  9
$CELTYPE
  6
ByLayer
  9
$CECOLOR
 62
   256
  9
$CELTSCALE
 40
1.0
  9
$DISPSILH
 70
     0
  9
$DIMSCALE
 40
1.0
  9
$DIMASZ
 40
0.18
  9
$DIMEXO
 40
0.0625
  9
$DIMDLI
 40
0.38
  9
$DIMRND
 40
0.0
  9
$DIMDLE
 40
0.0
  9
$DIMEXE
 40
0.18
  9
$DIMTP
 40
0.0
  9
$DIMTM
 40
0.0
  9
$DIMTXT
 40
0.18
  9
$DIMCEN
 40
0.09
  9
$DIMTSZ
 40
0.0
  9
$DIMTOL
 70
     0
  9
$DIMLIM
 70
     0
  9
$DIMTIH
 70
     1
  9
$DIMTOH
 70
     1
  9
$DIMSE1
 70
     0
  9
$DIMSE2
 70
     0
  9
$DIMTAD
 70
     0
  9
$DIMZIN
 70
     0
  9
$DIMBLK
  1

  9
$DIMASO
 70
     1
  9
$DIMSHO
 70
     1
  9
$DIMPOST
  1

  9
$DIMAPOST
  1

  9
$DIMALT
 70
     0
  9
$DIMALTD
 70
     2
  9
$DIMALTF
 40
25.4
  9
$DIMLFAC
 40
1.0
  9
$DIMTOFL
 70
     0
  9
$DIMTVP
 40
0.0
  9
$DIMTIX
 70
     0
  9
$DIMSOXD
 70
     0
  9
$DIMSAH
 70
     0
  9
$DIMBLK1
  1

  9
$DIMBLK2
  1

  9
$DIMSTYLE
  2
Standard
  9
$DIMCLRD
 70
     0
  9
$DIMCLRE
 70
     0
  9
$DIMCLRT
 70
     0
  9
$DIMTFAC
 40
1.0
  9
$DIMGAP
 40
0.09
  9
$DIMJUST
 70
     0
  9
$DIMSD1
 70
     0
  9
$DIMSD2
 70
     0
  9
$DIMTOLJ
 70
     1
  9
$DIMTZIN
 70
     0
  9
$DIMALTZ
 70
     0
  9
$DIMALTTZ
 70
     0
  9
$DIMUPT
 70
     0
  9
$DIMDEC
 70
     4
  9
$DIMTDEC
 70
     4
  9
$DIMALTU
 70
     2
  9
$DIMALTTD
 70
     2
  9
$DIMTXSTY
  7
Standard
  9
$DIMAUNIT
 70
     0
  9
$DIMADEC
 70
     0
  9
$DIMALTRND
 40
0.0
  9
$DIMAZIN
 70
     0
  9
$DIMDSEP
 70
    46
  9
$DIMATFIT
 70
     3
  9
$DIMFRAC
 70
     0
  9
$DIMLDRBLK
  1

  9
$DIMLUNIT
 70
     2
  9
$DIMLWD
 70
    -2
  9
$DIMLWE
 70
    -2
  9
$DIMTMOVE
 70
     0
  9
$LUNITS
 70
     2
  9
$LUPREC
 70
     4
  9
$SKETCHINC
 40
0.1
  9
$FILLETRAD
 40
0.5
  9
$AUNITS
 70
     0
  9
$AUPREC
 70
     0
  9
$MENU
  1
.
  9
$ELEVATION
 40
0.0
  9
$PELEVATION
 40
0.0
  9
$THICKNESS
 40
0.0
  9
$LIMCHECK
 70
     0
  9
$CHAMFERA
 40
0.0
  9
$CHAMFERB
 40
0.0
  9
$CHAMFERC
 40
0.0
  9
$CHAMFERD
 40
0.0
  9
$SKPOLY
 70
     0
  9
$TDCREATE
 40
2459135.547626366
  9
$TDUCREATE
 40
2459135.172626366
  9
$TDUPDATE
 40
2459135.547628484
  9
$TDUUPDATE
 40
2459135.172628484
  9
$TDINDWG
 40
0.0000000116
  9
$TDUSRTIMER
 40
0.0000000116
  9
$USRTIMER
 70
     1
  9
$ANGBASE
 50
0.0
  9
$ANGDIR
 70
     0
  9
$PDMODE
 70
     0
  9
$PDSIZE
 40
0.0
  9
$PLINEWID
 40
0.0
  9
$SPLFRAME
 70
     0
  9
$SPLINETYPE
 70
     6
  9
$SPLINESEGS
 70
     8
  9
$HANDSEED
  5
2FF
  9
$SURFTAB1
 70
     6
  9
$SURFTAB2
 70
     6
  9
$SURFTYPE
 70
     6
  9
$SURFU
 70
     6
  9
$SURFV
 70
     6
  9
$UCSBASE
  2

  9
$UCSNAME
  2

  9
$UCSORG
 10
0.0
 20
0.0
 30
0.0
  9
$UCSXDIR
 10
1.0
 20
0.0
 30
0.0
  9
$UCSYDIR
 10
0.0
 20
1.0
 30
0.0
  9
$UCSORTHOREF
  2

  9
$UCSORTHOVIEW
 70
     0
  9
$UCSORGTOP
 10
0.0
 20
0.0
 30
0.0
  9
$UCSORGBOTTOM
 10
0.0
 20
0.0
 30
0.0
  9
$UCSORGLEFT
 10
0.0
 20
0.0
 30
0.0
  9
$UCSORGRIGHT
 10
0.0
 20
0.0
 30
0.0
  9
$UCSORGFRONT
 10
0.0
 20
0.0
 30
0.0
  9
$UCSORGBACK
 10
0.0
 20
0.0
 30
0.0
  9
$PUCSBASE
  2

  9
$PUCSNAME
  2

  9
$PUCSORG
 10
0.0
 20
0.0
 30
0.0
  9
$PUCSXDIR
 10
1.0
 20
0.0
 30
0.0
  9
$PUCSYDIR
 10
0.0
 20
1.0
 30
0.0
  9
$PUCSORTHOREF
  2

  9
$PUCSORTHOVIEW
 70
     0
  9
$PUCSORGTOP
 10
0.0
 20
0.0
 30
0.0
  9
$PUCSORGBOTTOM
 10
0.0
 20
0.0
 30
0.0
  9
$PUCSORGLEFT
 10
0.0
 20
0.0
 30
0.0
  9
$PUCSORGRIGHT
 10
0.0
 20
0.0
 30
0.0
  9
$PUCSORGFRONT
 10
0.0
 20
0.0
 30
0.0
  9
$PUCSORGBACK
 10
0.0
 20
0.0
 30
0.0
  9
$USERI1
 70
     0
  9
$USERI2
 70
     0
  9
$USERI3
 70
     0
  9
$USERI4
 70
     0
  9
$USERI5
 70
     0
  9
$USERR1
 40
0.0
  9
$USERR2
 40
0.0
  9
$USERR3
 40
0.0
  9
$USERR4
 40
0.0
  9
$USERR5
 40
0.0
  9
$WORLDVIEW
 70
     1
  9
$SHADEDGE
 70
     3
  9
$SHADEDIF
 70
    70
  9
$TILEMODE
 70
     1
  9
$MAXACTVP
 70
    64
  9
$PINSBASE
 10
0.0
 20
0.0
 30
0.0
  9
$PLIMCHECK
 70
     0
  9
$PEXTMIN
 10
-9.375
 20
-25.0
 30
0.0
  9
$PEXTMAX
 10
525.0
 20
371.25
 30
0.0
  9
$PLIMMIN
 10
-7.5
 20
-20.0
  9
$PLIMMAX
 10
420.0
 20
297.0
  9
$UNITMODE
 70
     0
  9
$VISRETAIN
 70
     1
  9
$PLINEGEN
 70
     0
  9
$PSLTSCALE
 70
     0
  9
$TREEDEPTH
 70
  3020
  9
$CMLSTYLE
  2
Standard
  9
$CMLJUST
 70
     0
  9
$CMLSCALE
 40
1.0
  9
$PROXYGRAPHICS
 70
     1
  9
$MEASUREMENT
 70
     1
  9
$CELWEIGHT
370
    -1
  9
$ENDCAPS
280
     0
  9
$JOINSTYLE
280
     0
  9
$LWDISPLAY
290
     1
  9
$INSUNITS
 70
     0
  9
$HYPERLINKBASE
  1

  9
$STYLESHEET
  1

  9
$XEDIT
290
     1
  9
$CEPSNTYPE
380
     0
  9
$PSTYLEMODE
290
     1
  9
$FINGERPRINTGUID
  2
{743568fd-e196-4296-8eaf-a620049909bd}
  9
$VERSIONGUID
  2
{FAEB1C32-E019-11D5-929B-00C0DF256EC4}
  9
$EXTNAMES
290
     1
  9
$PSVPSCALE
 40
0.0
  9
$OLESTARTUP
290
     0
  0
ENDSEC
  0
SECTION
  2
CLASSES
  0
CLASS
  1
ACDBDICTIONARYWDFLT
  2
AcDbDictionaryWithDefault
  3
ObjectDBX Classes
 90
        0
280
     0
281
     0
  0
CLASS
  1
VISUALSTYLE
  2
AcDbVisualStyle
  3
ObjectDBX Classes
 90
     4095
280
     0
281
     0
  0
CLASS
  1
MATERIAL
  2
AcDbMaterial
  3
ObjectDBX Classes
 90
     1153
280
     0
281
     0
  0
CLASS
  1
SCALE
  2
AcDbScale
  3
ObjectDBX Classes
 90
     1153
280
     0
281
     0
  0
CLASS
  1
TABLESTYLE
  2
AcDbTableStyle
  3
ObjectDBX Classes
 90
     4095
280
     0
281
     0
  0
CLASS
  1
MLEADERSTYLE
  2
AcDbMLeaderStyle
  3
ACDB_MLEADERSTYLE_CLASS
 90
     4095
280
     0
281
     0
  0
CLASS
  1
SUN
  2
AcDbSun
  3
SCENEOE
 90
     1153
280
     0
281
     0
  0
CLASS
  1
RASTERVARIABLES
  2
AcDbRasterVariables
  3
ISM
 90
        0
280
     0
281
     0
  0
CLASS
  1
DICTIONARYVAR
  2
AcDbDictionaryVar
  3
ObjectDBX Classes
 90
        0
280
     0
281
     0
  0
CLASS
  1
ACDBPLACEHOLDER
  2
AcDbPlaceHolder
  3
ObjectDBX Classes
 90
        0
280
     0
281
     0
  0
CLASS
  1
LAYOUT
  2
AcDbLayout
  3
ObjectDBX Classes
 90
        0
280
     0
281
     0
  0
ENDSEC
  0
SECTION
  2
TABLES
  0
TABLE
  2
VPORT
  5
8
102
{ACAD_XDICTIONARY
360
2C2
102
}
330
0
100
AcDbSymbolTable
 70
     1
  0
VPORT
  5
29
330
8
100
AcDbSymbolTableRecord
100
AcDbViewportTableRecord
  2
*Active
 70
     0
 10
0.0
 20
0.0
 11
1.0
 21
1.0
 12
160.6823573816811
 22
116.926308364572
 13
0.0
 23
0.0
 14
0.5
 24
0.5
 15
0.5
 25
0.5
 16
0.0
 26
0.0
 36
1.0
 17
0.0
 27
0.0
 37
0.0
 40
181.1747524343989
 41
1.613867524890754
 42
50.0
 43
0.0
 44
0.0
 50
0.0
 51
0.0
 71
     0
 72
 20000
 73
     1
 74
     3
 75
     0
 76
     0
 77
     0
 78
     0
281
     0
 65
     1
110
0.0
120
0.0
130
0.0
111
1.0
121
0.0
131
0.0
112
0.0
122
1.0
132
0.0
 79
     0
146
0.0
  0
ENDTAB
  0
TABLE
  2
LTYPE
  5
5
330
0
100
AcDbSymbolTable
 70
     1
  0
LTYPE
  5
14
330
5
100
AcDbSymbolTableRecord
100
AcDbLinetypeTableRecord
  2
ByBlock
 70
     0
  3

 72
    65
 73
     0
 40
0.0
  0
LTYPE
  5
15
330
5
100
AcDbSymbolTableRecord
100
AcDbLinetypeTableRecord
  2
ByLayer
 70
     0
  3

 72
    65
 73
     0
 40
0.0
  0
LTYPE
  5
16
330
5
100
AcDbSymbolTableRecord
100
AcDbLinetypeTableRecord
  2
Continuous
 70
     0
  3
Solid line
 72
    65
 73
     0
 40
0.0
  0
ENDTAB
  0
TABLE
  2
LAYER
  5
2
330
0
100
AcDbSymbolTable
 70
     3
  0
LAYER
  5
10
330
2
100
AcDbSymbolTableRecord
100
AcDbLayerTableRecord
  2
0
 70
     0
 62
     7
  6
Continuous
370
    13
390
F
  0
LAYER
  5
70
330
2
100
AcDbSymbolTableRecord
100
AcDbLayerTableRecord
  2
レイヤー 1
 70
     0
 62
     7
  6
Continuous
370
    13
390
F
  0
LAYER
  5
71
330
2
100
AcDbSymbolTableRecord
100
AcDbLayerTableRecord
  2
rcviewportframe
 70
     0
 62
    -7
  6
Continuous
370
    -3
390
F
  0
ENDTAB
  0
TABLE
  2
STYLE
  5
3
330
0
100
AcDbSymbolTable
 70
     5
  0
STYLE
  5
11
330
3
100
AcDbSymbolTableRecord
100
AcDbTextStyleTableRecord
  2
Standard
 70
     0
 40
0.0
 41
1.0
 50
0.0
 71
     0
 42
0.2
  3
txt.shx
  4
extfont
  0
STYLE
  5
72
330
3
100
AcDbSymbolTableRecord
100
AcDbTextStyleTableRecord
  2
MS PGothic
 70
     0
 40
0.0
 41
1.0
 50
0.0
 71
     0
 42
0.2
  3
MS PGothic.ttf
  4

1001
ACAD
1000
ＭＳ Ｐゴシック
1071
    32818
  0
STYLE
  5
73
330
3
100
AcDbSymbolTableRecord
100
AcDbTextStyleTableRecord
  2
VERTICAL
 70
     4
 40
0.0
 41
1.0
 50
0.0
 71
     0
 42
0.2
  3
txt.shx
  4
extfont
  0
STYLE
  5
74
330
3
100
AcDbSymbolTableRecord
100
AcDbTextStyleTableRecord
  2
VERTICAL MS PGothic
 70
     0
 40
0.0
 41
1.0
 50
0.0
 71
     0
 42
0.2
  3
MS PGothic.ttf
  4

1001
ACAD
1000
@ＭＳ Ｐゴシック
1071
    32818
  0
STYLE
  5
2B4
330
3
100
AcDbSymbolTableRecord
100
AcDbTextStyleTableRecord
  2
HGPｺﾞｼｯｸM
 70
     0
 40
0.0
 41
1.0
 50
0.0
 71
     0
 42
0.2
  3
HGRGM.TTC
  4
extfont
1001
ACAD
1000
HGPｺﾞｼｯｸM
1071
    32818
  0
ENDTAB
  0
TABLE
  2
VIEW
  5
6
330
0
100
AcDbSymbolTable
 70
     0
  0
ENDTAB
  0
TABLE
  2
UCS
  5
7
330
0
100
AcDbSymbolTable
 70
     0
  0
ENDTAB
  0
TABLE
  2
APPID
  5
9
330
0
100
AcDbSymbolTable
 70
     3
  0
APPID
  5
12
330
9
100
AcDbSymbolTableRecord
100
AcDbRegAppTableRecord
  2
ACAD
 70
     0
  0
APPID
  5
6E
330
9
100
AcDbSymbolTableRecord
100
AcDbRegAppTableRecord
  2
RootPro CAD
 70
     0
  0
APPID
  5
2FC
330
9
100
AcDbSymbolTableRecord
100
AcDbRegAppTableRecord
  2
ACAD_MLEADERVER
 70
     0
  0
ENDTAB
  0
TABLE
  2
DIMSTYLE
  5
A
330
0
100
AcDbSymbolTable
 70
     1
100
AcDbDimStyleTable
  0
DIMSTYLE
105
27
330
A
100
AcDbSymbolTableRecord
100
AcDbDimStyleTableRecord
  2
Standard
 70
     0
178
     0
340
11
  0
ENDTAB
  0
TABLE
  2
BLOCK_RECORD
  5
1
330
0
100
AcDbSymbolTable
 70
     0
  0
BLOCK_RECORD
  5
1F
330
1
100
AcDbSymbolTableRecord
100
AcDbBlockTableRecord
  2
*Model_Space
340
22
  0
BLOCK_RECORD
  5
1B
330
1
100
AcDbSymbolTableRecord
100
AcDbBlockTableRecord
  2
*Paper_Space
340
1E
  0
ENDTAB
  0
ENDSEC
  0
SECTION
  2
BLOCKS
  0
BLOCK
  5
20
330
1F
100
AcDbEntity
  8
0
100
AcDbBlockBegin
  2
*Model_Space
 70
     0
 10
0.0
 20
0.0
 30
0.0
  3
*Model_Space
  1

  0
ENDBLK
  5
21
330
1F
100
AcDbEntity
  8
0
100
AcDbBlockEnd
  0
BLOCK
  5
1C
330
1B
100
AcDbEntity
 67
     1
  8
0
100
AcDbBlockBegin
  2
*Paper_Space
 70
     0
 10
0.0
 20
0.0
 30
0.0
  3
*Paper_Space
  1

  0
ENDBLK
  5
1D
330
1B
100
AcDbEntity
 67
     1
  8
0
100
AcDbBlockEnd
  0
ENDSEC
  0
SECTION
  2
ENTITIES
  0
LINE
  5
75
330
1F
100
AcDbEntity
  8
レイヤー 1
 62
     7
370
    13
100
AcDbLine
 10
34.23262528981267
 20
89.19960293412527
 30
0.0
 11
34.23262528981267
 21
89.32655470275671
 31
0.0
  0
LINE
  5
76
330
1F
100
AcDbEntity
  8
レイヤー 1
 62
     7
370
    13
100
AcDbLine
 10
33.34361839984395
 20
98.34374762584963
 30
0.0
 11
22.04060462228777
 21
95.2109500463377
 31
0.0
  0
LINE
  5
77
330
1F
100
AcDbEntity
  8
レイヤー 1
 62
     7
370
    13
100
AcDbLine
 10
28.17907575790592
 20
95.46502583837486
 30
0.0
 11
28.09432640896877
 21
95.46502583837486
 31
0.0
  0
LINE
  5
78
330
1F
100
AcDbEntity
  8
レイヤー 1
 62
     7
370
    13
100
AcDbLine
 10
21.82907575949342
 20
95.04162360323767
 30
0.0
 11
21.53262529298767
 21
86.61733161315624
 31
0.0
  0
LINE
  5
79
330
1F
100
AcDbEntity
  8
レイヤー 1
 62
     7
370
    13
100
AcDbLine
 10
34.35974931321839
 20
89.28435228306239
 30
0.0
 11
298.2234021335372
 21
37.17194317065648
 31
0.0
  0
LINE
  5
7A
330
1F
100
AcDbEntity
  8
レイヤー 1
 62
     7
370
    13
100
AcDbLine
 10
299.8742918900689
 20
45.93488804693797
 30
0.0
 11
33.47074242324966
 21
98.5129018141754
 31
0.0
  0
LINE
  5
7B
330
1F
100
AcDbEntity
  8
レイヤー 1
 62
     7
370
    13
100
AcDbLine
 10
288.5289034380442
 20
31.03364428981257
 30
0.0
 11
290.1801377041244
 21
30.7373660780811
 31
0.0
  0
LINE
  5
7C
330
1F
100
AcDbEntity
  8
レイヤー 1
 62
     7
370
    13
100
AcDbLine
 10
299.2817354666059
 20
36.83329028445641
 30
0.0
 11
297.6305012005257
 21
37.21431784512504
 31
0.0
  0
LINE
  5
7D
330
1F
100
AcDbEntity
  8
レイヤー 1
 62
     7
370
    13
100
AcDbLine
 10
296.1067354673997
 20
37.59534540579367
 30
0.0
 11
296.1067354673997
 21
37.51059605685654
 31
0.0
  0
POINT
  5
7E
330
1F
100
AcDbEntity
  8
レイヤー 1
 62
     7
370
    13
100
AcDbPoint
 10
299.3241101410745
 20
35.14002585345611
 30
0.0
  0
LINE
  5
7F
330
1F
100
AcDbEntity
  8
レイヤー 1
 62
     7
370
    13
100
AcDbLine
 10
299.3241101410745
 20
35.14002585345611
 30
0.0
 11
299.3241101410745
 21
35.1824005279247
 31
0.0
  0
LINE
  5
80
330
1F
100
AcDbEntity
  8
レイヤー 1
 62
     7
370
    13
100
AcDbLine
 10
299.3241101410745
 20
35.1824005279247
 30
0.0
 11
299.3661403059946
 21
35.1824005279247
 31
0.0
  0
LINE
  5
81
330
1F
100
AcDbEntity
  8
レイヤー 1
 62
     7
370
    13
100
AcDbLine
 10
299.3661403059946
 20
35.1824005279247
 30
0.0
 11
299.3661403059946
 21
35.22460294761899
 31
0.0
  0
LINE
  5
82
330
1F
100
AcDbEntity
  8
レイヤー 1
 62
     7
370
    13
100
AcDbLine
 10
299.3661403059946
 20
35.22460294761899
 30
0.0
 11
299.4088594900117
 21
35.26697762208758
 31
0.0
  0
LINE
  5
83
330
1F
100
AcDbEntity
  8
レイヤー 1
 62
     7
370
    13
100
AcDbLine
 10
299.4088594900117
 20
35.26697762208758
 30
0.0
 11
299.4088594900117
 21
35.30935229655614
 31
0.0
  0
LINE
  5
84
330
1F
100
AcDbEntity
  8
レイヤー 1
 62
     7
370
    13
100
AcDbLine
 10
299.4088594900117
 20
35.30935229655614
 30
0.0
 11
299.4088594900117
 21
35.35155471625046
 31
0.0
  0
LINE
  5
85
330
1F
100
AcDbEntity
  8
レイヤー 1
 62
     7
370
    13
100
AcDbLine
 10
299.4088594900117
 20
35.35155471625046
 30
0.0
 11
299.4508896549317
 21
35.39392939071902
 31
0.0
  0
LINE
  5
86
330
1F
100
AcDbEntity
  8
レイヤー 1
 62
     7
370
    13
100
AcDbLine
 10
299.4508896549317
 20
35.39392939071902
 30
0.0
 11
299.4508896549317
 21
35.43630406518761
 31
0.0
  0
LINE
  5
87
330
1F
100
AcDbEntity
  8
レイヤー 1
 62
     7
370
    13
100
AcDbLine
 10
299.4508896549317
 20
35.43630406518761
 30
0.0
 11
299.4508896549317
 21
35.47867873965617
 31
0.0
  0
LINE
  5
88
330
1F
100
AcDbEntity
  8
レイヤー 1
 62
     7
370
    13
100
AcDbLine
 10
299.4508896549317
 20
35.47867873965617
 30
0.0
 11
299.4508896549317
 21
35.52105341412474
 31
0.0
  0
LINE
  5
89
330
1F
100
AcDbEntity
  8
レイヤー 1
 62
     7
370
    13
100
AcDbLine
 10
299.4508896549317
 20
35.52105341412474
 30
0.0
 11
299.4508896549317
 21
35.56325583381906
 31
0.0
  0
LINE
  5
8A
330
1F
100
AcDbEntity
  8
レイヤー 1
 62
     7
370
    13
100
AcDbLine
 10
299.4508896549317
 20
35.56325583381906
 30
0.0
 11
299.4932643294003
 21
36.40988804931922
 31
0.0
  0
LINE
  5
8B
330
1F
100
AcDbEntity
  8
レイヤー 1
 62
     7
370
    13
100
AcDbLine
 10
299.4932643294003
 20
36.40988804931922
 30
0.0
 11
299.4932643294003
 21
36.45226272378778
 31
0.0
  0
LINE
  5
8C
330
1F
100
AcDbEntity
  8
レイヤー 1
 62
     7
370
    13
100
AcDbLine
 10
299.4932643294003
 20
36.45226272378778
 30
0.0
 11
299.4932643294003
 21
36.49463739825634
 31
0.0
  0
LINE
  5
8D
330
1F
100
AcDbEntity
  8
レイヤー 1
 62
     7
370
    13
100
AcDbLine
 10
299.4932643294003
 20
36.49463739825634
 30
0.0
 11
299.4932643294003
 21
36.53701207272493
 31
0.0
  0
LINE
  5
8E
330
1F
100
AcDbEntity
  8
レイヤー 1
 62
     7
370
    13
100
AcDbLine
 10
299.4932643294003
 20
36.53701207272493
 30
0.0
 11
299.4932643294003
 21
36.5793867471935
 31
0.0
  0
LINE
  5
8F
330
1F
100
AcDbEntity
  8
レイヤー 1
 62
     7
370
    13
100
AcDbLine
 10
299.4932643294003
 20
36.5793867471935
 30
0.0
 11
299.4932643294003
 21
36.62158916688782
 31
0.0
  0
LINE
  5
90
330
1F
100
AcDbEntity
  8
レイヤー 1
 62
     7
370
    13
100
AcDbLine
 10
299.4932643294003
 20
36.62158916688782
 30
0.0
 11
299.4508896549317
 21
36.62158916688782
 31
0.0
  0
LINE
  5
91
330
1F
100
AcDbEntity
  8
レイヤー 1
 62
     7
370
    13
100
AcDbLine
 10
299.4508896549317
 20
36.62158916688782
 30
0.0
 11
299.4508896549317
 21
36.66396384135638
 31
0.0
  0
LINE
  5
92
330
1F
100
AcDbEntity
  8
レイヤー 1
 62
     7
370
    13
100
AcDbLine
 10
299.4508896549317
 20
36.66396384135638
 30
0.0
 11
299.4508896549317
 21
36.70633851582497
 31
0.0
  0
LINE
  5
93
330
1F
100
AcDbEntity
  8
レイヤー 1
 62
     7
370
    13
100
AcDbLine
 10
299.4508896549317
 20
36.70633851582497
 30
0.0
 11
299.4088594900117
 21
36.74871319029353
 31
0.0
  0
LINE
  5
94
330
1F
100
AcDbEntity
  8
レイヤー 1
 62
     7
370
    13
100
AcDbLine
 10
299.4088594900117
 20
36.74871319029353
 30
0.0
 11
299.3661403059946
 21
36.79091560998785
 31
0.0
  0
LINE
  5
95
330
1F
100
AcDbEntity
  8
レイヤー 1
 62
     7
370
    13
100
AcDbLine
 10
299.3661403059946
 20
36.79091560998785
 30
0.0
 11
299.3241101410745
 21
36.79091560998785
 31
0.0
  0
LINE
  5
96
330
1F
100
AcDbEntity
  8
レイヤー 1
 62
     7
370
    13
100
AcDbLine
 10
299.3241101410745
 20
36.79091560998785
 30
0.0
 11
299.3241101410745
 21
36.83329028445641
 31
0.0
  0
LINE
  5
97
330
1F
100
AcDbEntity
  8
レイヤー 1
 62
     7
370
    13
100
AcDbLine
 10
299.3241101410745
 20
36.83329028445641
 30
0.0
 11
299.2817354666059
 21
36.83329028445641
 31
0.0
  0
LINE
  5
98
330
1F
100
AcDbEntity
  8
レイヤー 1
 62
     7
370
    13
100
AcDbLine
 10
297.7999998984
 20
37.17194317065648
 30
0.0
 11
297.7999998984
 21
37.25669251959363
 31
0.0
  0
LINE
  5
99
330
1F
100
AcDbEntity
  8
レイヤー 1
 62
     7
370
    13
100
AcDbLine
 10
24.03031951979379
 20
83.31537984531852
 30
0.0
 11
25.6813815310998
 21
82.93435228464989
 31
0.0
  0
LINE
  5
9A
330
1F
100
AcDbEntity
  8
レイヤー 1
 62
     7
370
    13
100
AcDbLine
 10
35.03705508561852
 20
89.03027649102523
 30
0.0
 11
33.38599307431254
 21
89.32655470275671
 31
0.0
  0
LINE
  5
9B
330
1F
100
AcDbEntity
  8
レイヤー 1
 62
     7
370
    13
100
AcDbLine
 10
33.30141598014966
 20
89.32655470275671
 30
0.0
 11
21.82907575949342
 21
86.10935228385614
 31
0.0
  0
LINE
  5
9C
330
1F
100
AcDbEntity
  8
レイヤー 1
 62
     7
370
    13
100
AcDbLine
 10
33.2166666312125
 20
89.70758226342534
 30
0.0
 11
33.25904130568107
 21
89.70758226342534
 31
0.0
  0
LINE
  5
9D
330
1F
100
AcDbEntity
  8
レイヤー 1
 62
     7
370
    13
100
AcDbLine
 10
33.25904130568107
 20
89.70758226342534
 30
0.0
 11
33.25904130568107
 21
89.66537984373105
 31
0.0
  0
LINE
  5
9E
330
1F
100
AcDbEntity
  8
レイヤー 1
 62
     7
370
    13
100
AcDbLine
 10
33.25904130568107
 20
89.66537984373105
 30
0.0
 11
33.2166666312125
 21
89.62300516926246
 31
0.0
  0
LINE
  5
9F
330
1F
100
AcDbEntity
  8
レイヤー 1
 62
     7
370
    13
100
AcDbLine
 10
33.2166666312125
 20
89.62300516926246
 30
0.0
 11
33.2166666312125
 21
89.5806304947939
 31
0.0
  0
LINE
  5
A0
330
1F
100
AcDbEntity
  8
レイヤー 1
 62
     7
370
    13
100
AcDbLine
 10
33.2166666312125
 20
89.5806304947939
 30
0.0
 11
33.2166666312125
 21
89.5382558203253
 31
0.0
  0
LINE
  5
A1
330
1F
100
AcDbEntity
  8
レイヤー 1
 62
     7
370
    13
100
AcDbLine
 10
26.18936086039987
 20
91.48559604336279
 30
0.0
 11
26.14698618593131
 21
91.4432213688942
 31
0.0
  0
POINT
  5
A2
330
1F
100
AcDbEntity
  8
レイヤー 1
 62
     7
370
    13
100
AcDbPoint
 10
21.49025061851911
 20
84.71236606458734
 30
0.0
  0
LINE
  5
A3
330
1F
100
AcDbEntity
  8
レイヤー 1
 62
     7
370
    13
100
AcDbLine
 10
21.49025061851911
 20
84.71236606458734
 30
0.0
 11
21.49025061851911
 21
84.66999139011878
 31
0.0
  0
LINE
  5
A4
330
1F
100
AcDbEntity
  8
レイヤー 1
 62
     7
370
    13
100
AcDbLine
 10
21.49025061851911
 20
84.66999139011878
 30
0.0
 11
21.49025061851911
 21
84.62761671565019
 31
0.0
  0
LINE
  5
A5
330
1F
100
AcDbEntity
  8
レイヤー 1
 62
     7
370
    13
100
AcDbLine
 10
21.49025061851911
 20
84.62761671565019
 30
0.0
 11
21.49025061851911
 21
84.58541429595587
 31
0.0
  0
LINE
  5
A6
330
1F
100
AcDbEntity
  8
レイヤー 1
 62
     7
370
    13
100
AcDbLine
 10
21.49025061851911
 20
84.58541429595587
 30
0.0
 11
21.53262529298767
 21
84.54303962148731
 31
0.0
  0
LINE
  5
A7
330
1F
100
AcDbEntity
  8
レイヤー 1
 62
     7
370
    13
100
AcDbLine
 10
21.53262529298767
 20
84.54303962148731
 30
0.0
 11
21.53262529298767
 21
84.50066494701875
 31
0.0
  0
LINE
  5
A8
330
1F
100
AcDbEntity
  8
レイヤー 1
 62
     7
370
    13
100
AcDbLine
 10
21.53262529298767
 20
84.50066494701875
 30
0.0
 11
21.53262529298767
 21
84.45829027255016
 31
0.0
  0
LINE
  5
A9
330
1F
100
AcDbEntity
  8
レイヤー 1
 62
     7
370
    13
100
AcDbLine
 10
21.53262529298767
 20
84.45829027255016
 30
0.0
 11
21.57499996745624
 21
84.45829027255016
 31
0.0
  0
LINE
  5
AA
330
1F
100
AcDbEntity
  8
レイヤー 1
 62
     7
370
    13
100
AcDbLine
 10
21.57499996745624
 20
84.45829027255016
 30
0.0
 11
21.57499996745624
 21
84.4159155980816
 31
0.0
  0
LINE
  5
AB
330
1F
100
AcDbEntity
  8
レイヤー 1
 62
     7
370
    13
100
AcDbLine
 10
21.57499996745624
 20
84.4159155980816
 30
0.0
 11
21.57499996745624
 21
84.37371317838728
 31
0.0
  0
LINE
  5
AC
330
1F
100
AcDbEntity
  8
レイヤー 1
 62
     7
370
    13
100
AcDbLine
 10
21.57499996745624
 20
84.37371317838728
 30
0.0
 11
21.61737464192483
 21
84.37371317838728
 31
0.0
  0
LINE
  5
AD
330
1F
100
AcDbEntity
  8
レイヤー 1
 62
     7
370
    13
100
AcDbLine
 10
21.61737464192483
 20
84.37371317838728
 30
0.0
 11
21.61737464192483
 21
84.33133850391872
 31
0.0
  0
LINE
  5
AE
330
1F
100
AcDbEntity
  8
レイヤー 1
 62
     7
370
    13
100
AcDbLine
 10
21.61737464192483
 20
84.33133850391872
 30
0.0
 11
21.65974931639339
 21
84.33133850391872
 31
0.0
  0
POINT
  5
AF
330
1F
100
AcDbEntity
  8
レイヤー 1
 62
     7
370
    13
100
AcDbPoint
 10
21.61737464192483
 20
85.89765116628755
 30
0.0
  0
LINE
  5
B0
330
1F
100
AcDbEntity
  8
レイヤー 1
 62
     7
370
    13
100
AcDbLine
 10
21.61737464192483
 20
85.89765116628755
 30
0.0
 11
21.57499996745624
 21
85.85527649181898
 31
0.0
  0
LINE
  5
B1
330
1F
100
AcDbEntity
  8
レイヤー 1
 62
     7
370
    13
100
AcDbLine
 10
21.57499996745624
 20
85.85527649181898
 30
0.0
 11
21.57499996745624
 21
85.8129018173504
 31
0.0
  0
LINE
  5
B2
330
1F
100
AcDbEntity
  8
レイヤー 1
 62
     7
370
    13
100
AcDbLine
 10
21.57499996745624
 20
85.8129018173504
 30
0.0
 11
21.53262529298767
 21
85.7706993976561
 31
0.0
  0
LINE
  5
B3
330
1F
100
AcDbEntity
  8
レイヤー 1
 62
     7
370
    13
100
AcDbLine
 10
21.53262529298767
 20
85.7706993976561
 30
0.0
 11
21.53262529298767
 21
85.68595004871895
 31
0.0
  0
LINE
  5
B4
330
1F
100
AcDbEntity
  8
レイヤー 1
 62
     7
370
    13
100
AcDbLine
 10
21.53262529298767
 20
85.68595004871895
 30
0.0
 11
21.53262529298767
 21
85.64374762902463
 31
0.0
  0
LINE
  5
B5
330
1F
100
AcDbEntity
  8
レイヤー 1
 62
     7
370
    13
100
AcDbLine
 10
21.53262529298767
 20
85.64374762902463
 30
0.0
 11
21.53262529298767
 21
85.60137295455607
 31
0.0
  0
LINE
  5
B6
330
1F
100
AcDbEntity
  8
レイヤー 1
 62
     7
370
    13
100
AcDbLine
 10
21.53262529298767
 20
85.60137295455607
 30
0.0
 11
21.53262529298767
 21
85.55899828008748
 31
0.0
  0
POINT
  5
B7
330
1F
100
AcDbEntity
  8
レイヤー 1
 62
     7
370
    13
100
AcDbPoint
 10
21.82907575949342
 20
86.10935228385614
 30
0.0
  0
LINE
  5
B8
330
1F
100
AcDbEntity
  8
レイヤー 1
 62
     7
370
    13
100
AcDbLine
 10
21.82907575949342
 20
86.10935228385614
 30
0.0
 11
21.78670108502486
 21
86.10935228385614
 31
0.0
  0
LINE
  5
B9
330
1F
100
AcDbEntity
  8
レイヤー 1
 62
     7
370
    13
100
AcDbLine
 10
21.78670108502486
 20
86.10935228385614
 30
0.0
 11
21.74432641055627
 21
86.06697760938758
 31
0.0
  0
LINE
  5
BA
330
1F
100
AcDbEntity
  8
レイヤー 1
 62
     7
370
    13
100
AcDbLine
 10
21.74432641055627
 20
86.06697760938758
 30
0.0
 11
21.70195173608771
 21
86.02460293491902
 31
0.0
  0
LINE
  5
BB
330
1F
100
AcDbEntity
  8
レイヤー 1
 62
     7
370
    13
100
AcDbLine
 10
21.70195173608771
 20
86.02460293491902
 30
0.0
 11
21.65974931639339
 21
85.9824005152247
 31
0.0
  0
LINE
  5
BC
330
1F
100
AcDbEntity
  8
レイヤー 1
 62
     7
370
    13
100
AcDbLine
 10
21.65974931639339
 20
85.9824005152247
 30
0.0
 11
21.61737464192483
 21
85.9400258407561
 31
0.0
  0
LINE
  5
BD
330
1F
100
AcDbEntity
  8
レイヤー 1
 62
     7
370
    13
100
AcDbLine
 10
21.61737464192483
 20
85.9400258407561
 30
0.0
 11
21.61737464192483
 21
85.89765116628755
 31
0.0
  0
LINE
  5
BE
330
1F
100
AcDbEntity
  8
レイヤー 1
 62
     7
370
    13
100
AcDbLine
 10
21.53262529298767
 20
85.55899828008748
 30
0.0
 11
21.49025061851911
 21
84.71236606458734
 31
0.0
  0
LINE
  5
BF
330
1F
100
AcDbEntity
  8
レイヤー 1
 62
     7
370
    13
100
AcDbLine
 10
25.8930826486684
 20
82.89197761018133
 30
0.0
 11
288.402123924187
 21
31.07601896428116
 31
0.0
  0
LINE
  5
C0
330
1F
100
AcDbEntity
  8
レイヤー 1
 62
     7
370
    13
100
AcDbLine
 10
297.6305012005257
 20
37.21431784512504
 30
0.0
 11
35.07925750531281
 21
89.03027649102523
 31
0.0
  0
LINE
  5
C1
330
1F
100
AcDbEntity
  8
レイヤー 1
 62
     7
370
    13
100
AcDbLine
 10
33.2166666312125
 20
89.41130405169386
 30
0.0
 11
21.57499996745624
 21
86.15155470355046
 31
0.0
  0
LINE
  5
C2
330
1F
100
AcDbEntity
  8
レイヤー 1
 62
     7
370
    13
100
AcDbLine
 10
21.49025061851911
 20
86.27867872695617
 30
0.0
 11
21.49025061851911
 21
86.23630405248761
 31
0.0
  0
LINE
  5
C3
330
1F
100
AcDbEntity
  8
レイヤー 1
 62
     7
370
    13
100
AcDbLine
 10
21.49025061851911
 20
86.23630405248761
 30
0.0
 11
21.53262529298767
 21
86.19392937801902
 31
0.0
  0
LINE
  5
C4
330
1F
100
AcDbEntity
  8
レイヤー 1
 62
     7
370
    13
100
AcDbLine
 10
21.53262529298767
 20
86.19392937801902
 30
0.0
 11
21.57499996745624
 21
86.15155470355046
 31
0.0
  0
LINE
  5
C5
330
1F
100
AcDbEntity
  8
レイヤー 1
 62
     7
370
    13
100
AcDbLine
 10
21.49025061851911
 20
86.27867872695617
 30
0.0
 11
21.57499996745624
 21
86.32105340142476
 31
0.0
  0
LINE
  5
C6
330
1F
100
AcDbEntity
  8
レイヤー 1
 62
     7
370
    13
100
AcDbLine
 10
21.57499996745624
 20
86.32105340142476
 30
0.0
 11
33.08971486258103
 21
89.5382558203253
 31
0.0
  0
LINE
  5
C7
330
1F
100
AcDbEntity
  8
レイヤー 1
 62
     7
370
    13
100
AcDbLine
 10
33.08971486258103
 20
89.5382558203253
 30
0.0
 11
33.13191728227535
 21
89.5382558203253
 31
0.0
  0
LINE
  5
C8
330
1F
100
AcDbEntity
  8
レイヤー 1
 62
     7
370
    13
100
AcDbLine
 10
33.13191728227535
 20
89.5382558203253
 30
0.0
 11
33.13191728227535
 21
89.49605340063101
 31
0.0
  0
LINE
  5
C9
330
1F
100
AcDbEntity
  8
レイヤー 1
 62
     7
370
    13
100
AcDbLine
 10
33.13191728227535
 20
89.49605340063101
 30
0.0
 11
33.17429195674391
 21
89.49605340063101
 31
0.0
  0
LINE
  5
CA
330
1F
100
AcDbEntity
  8
レイヤー 1
 62
     7
370
    13
100
AcDbLine
 10
33.17429195674391
 20
89.49605340063101
 30
0.0
 11
33.17429195674391
 21
89.45367872616242
 31
0.0
  0
LINE
  5
CB
330
1F
100
AcDbEntity
  8
レイヤー 1
 62
     7
370
    13
100
AcDbLine
 10
33.17429195674391
 20
89.45367872616242
 30
0.0
 11
33.2166666312125
 21
89.45367872616242
 31
0.0
  0
LINE
  5
CC
330
1F
100
AcDbEntity
  8
レイヤー 1
 62
     7
370
    13
100
AcDbLine
 10
33.2166666312125
 20
89.45367872616242
 30
0.0
 11
33.2166666312125
 21
89.41130405169386
 31
0.0
  0
LINE
  5
CD
330
1F
100
AcDbEntity
  8
レイヤー 1
 62
     7
370
    13
100
AcDbLine
 10
33.2166666312125
 20
89.5382558203253
 30
0.0
 11
33.13191728227535
 21
89.5382558203253
 31
0.0
  0
LINE
  5
CE
330
1F
100
AcDbEntity
  8
レイヤー 1
 62
     7
370
    13
100
AcDbLine
 10
33.2166666312125
 20
89.5382558203253
 30
0.0
 11
33.2166666312125
 21
89.41130405169386
 31
0.0
  0
LINE
  5
CF
330
1F
100
AcDbEntity
  8
レイヤー 1
 62
     7
370
    13
100
AcDbLine
 10
33.2166666312125
 20
89.5382558203253
 30
0.0
 11
34.19025061534411
 21
89.32655470275671
 31
0.0
  0
LINE
  5
D0
330
1F
100
AcDbEntity
  8
レイヤー 1
 62
     7
370
    13
100
AcDbLine
 10
34.19025061534411
 20
89.24197760859383
 30
0.0
 11
34.19025061534411
 21
89.32655470275671
 31
0.0
  0
LINE
  5
D1
330
1F
100
AcDbEntity
  8
レイヤー 1
 62
     7
370
    13
100
AcDbLine
 10
33.2166666312125
 20
89.41130405169386
 30
0.0
 11
34.19025061534411
 21
89.24197760859383
 31
0.0
  0
POINT
  5
D2
330
1F
100
AcDbEntity
  8
レイヤー 1
 62
     7
370
    13
100
AcDbPoint
 10
34.23262528981267
 20
89.19960293412527
 30
0.0
  0
LINE
  5
D3
330
1F
100
AcDbEntity
  8
レイヤー 1
 62
     7
370
    13
100
AcDbLine
 10
34.23262528981267
 20
89.19960293412527
 30
0.0
 11
34.23262528981267
 21
89.24197760859383
 31
0.0
  0
LINE
  5
D4
330
1F
100
AcDbEntity
  8
レイヤー 1
 62
     7
370
    13
100
AcDbLine
 10
34.23262528981267
 20
89.24197760859383
 30
0.0
 11
34.19025061534411
 21
89.24197760859383
 31
0.0
  0
LINE
  5
D5
330
1F
100
AcDbEntity
  8
レイヤー 1
 62
     7
370
    13
100
AcDbLine
 10
34.23262528981267
 20
89.19960293412527
 30
0.0
 11
34.19025061534411
 21
89.19960293412527
 31
0.0
  0
LINE
  5
D6
330
1F
100
AcDbEntity
  8
レイヤー 1
 62
     7
370
    13
100
AcDbLine
 10
21.57499996745624
 20
86.15155470355046
 30
0.0
 11
21.82907575949342
 21
86.10935228385614
 31
0.0
  0
LINE
  5
D7
330
1F
100
AcDbEntity
  8
レイヤー 1
 62
     7
370
    13
100
AcDbLine
 10
33.08971486258103
 20
89.83470628683105
 30
0.0
 11
33.17429195674391
 21
89.83470628683105
 31
0.0
  0
LINE
  5
D8
330
1F
100
AcDbEntity
  8
レイヤー 1
 62
     7
370
    13
100
AcDbLine
 10
33.17429195674391
 20
89.83470628683105
 30
0.0
 11
33.13191728227535
 21
89.83470628683105
 31
0.0
  0
LINE
  5
D9
330
1F
100
AcDbEntity
  8
レイヤー 1
 62
     7
370
    13
100
AcDbLine
 10
33.13191728227535
 20
89.83470628683105
 30
0.0
 11
33.08971486258103
 21
89.83470628683105
 31
0.0
  0
LINE
  5
DA
330
1F
100
AcDbEntity
  8
レイヤー 1
 62
     7
370
    13
100
AcDbLine
 10
33.38599307431254
 20
98.25899827691248
 30
0.0
 11
33.08971486258103
 21
89.83470628683105
 31
0.0
  0
LINE
  5
DB
330
1F
100
AcDbEntity
  8
レイヤー 1
 62
     7
370
    13
100
AcDbLine
 10
33.47074242324966
 20
98.30137295138107
 30
0.0
 11
33.4283677487811
 21
98.30137295138107
 31
0.0
  0
LINE
  5
DC
330
1F
100
AcDbEntity
  8
レイヤー 1
 62
     7
370
    13
100
AcDbLine
 10
33.4283677487811
 20
98.30137295138107
 30
0.0
 11
33.38599307431254
 21
98.25899827691248
 31
0.0
  0
LINE
  5
DD
330
1F
100
AcDbEntity
  8
レイヤー 1
 62
     7
370
    13
100
AcDbLine
 10
21.57499996745624
 20
86.61733161315624
 30
0.0
 11
21.87127817918774
 21
95.04162360323767
 31
0.0
  0
LINE
  5
DE
330
1F
100
AcDbEntity
  8
レイヤー 1
 62
     7
370
    13
100
AcDbLine
 10
21.87127817918774
 20
95.04162360323767
 30
0.0
 11
21.99840220259345
 21
95.08399827770623
 31
0.0
  0
LINE
  5
DF
330
1F
100
AcDbEntity
  8
レイヤー 1
 62
     7
370
    13
100
AcDbLine
 10
21.99840220259345
 20
95.08399827770623
 30
0.0
 11
21.99840220259345
 21
95.12637295217482
 31
0.0
  0
LINE
  5
E0
330
1F
100
AcDbEntity
  8
レイヤー 1
 62
     7
370
    13
100
AcDbLine
 10
21.99840220259345
 20
95.12637295217482
 30
0.0
 11
33.25904130568107
 21
98.25899827691248
 31
0.0
  0
LINE
  5
E1
330
1F
100
AcDbEntity
  8
レイヤー 1
 62
     7
370
    13
100
AcDbLine
 10
33.25904130568107
 20
98.25899827691248
 30
0.0
 11
33.25904130568107
 21
98.21662360244392
 31
0.0
  0
LINE
  5
E2
330
1F
100
AcDbEntity
  8
レイヤー 1
 62
     7
370
    13
100
AcDbLine
 10
33.25904130568107
 20
98.25899827691248
 30
0.0
 11
33.38599307431254
 21
98.25899827691248
 31
0.0
  0
LINE
  5
E3
330
1F
100
AcDbEntity
  8
レイヤー 1
 62
     7
370
    13
100
AcDbLine
 10
33.08971486258103
 20
89.83470628683105
 30
0.0
 11
33.08971486258103
 21
89.5382558203253
 31
0.0
  0
LINE
  5
E4
330
1F
100
AcDbEntity
  8
レイヤー 1
 62
     7
370
    13
100
AcDbLine
 10
21.57499996745624
 20
86.32105340142476
 30
0.0
 11
21.57499996745624
 21
86.61733161315624
 31
0.0
  0
LINE
  5
E5
330
1F
100
AcDbEntity
  8
レイヤー 1
 62
     7
370
    13
100
AcDbLine
 10
27.45939531103723
 20
95.4226511639063
 30
0.0
 11
27.45939531103723
 21
95.46502583837486
 31
0.0
  0
LINE
  5
E6
330
1F
100
AcDbEntity
  8
レイヤー 1
 62
     7
370
    13
100
AcDbLine
 10
27.45939531103723
 20
95.4226511639063
 30
0.0
 11
27.37464596210008
 21
95.38027648943773
 31
0.0
  0
LINE
  5
E7
330
1F
100
AcDbEntity
  8
レイヤー 1
 62
     7
370
    13
100
AcDbLine
 10
27.37464596210008
 20
95.38027648943773
 30
0.0
 11
27.33227128763151
 21
95.33790181496914
 31
0.0
  0
LINE
  5
E8
330
1F
100
AcDbEntity
  8
レイヤー 1
 62
     7
370
    13
100
AcDbLine
 10
27.33227128763151
 20
95.33790181496914
 30
0.0
 11
27.24769419346863
 21
95.29569939527485
 31
0.0
  0
LINE
  5
E9
330
1F
100
AcDbEntity
  8
レイヤー 1
 62
     7
370
    13
100
AcDbLine
 10
27.24769419346863
 20
95.33790181496914
 30
0.0
 11
27.24769419346863
 21
95.29569939527485
 31
0.0
  0
LINE
  5
EA
330
1F
100
AcDbEntity
  8
レイヤー 1
 62
     7
370
    13
100
AcDbLine
 10
27.0783677503686
 20
90.34268561613115
 30
0.0
 11
26.78191728386285
 21
90.42726271029403
 31
0.0
  0
LINE
  5
EB
330
1F
100
AcDbEntity
  8
レイヤー 1
 62
     7
370
    13
100
AcDbLine
 10
26.78191728386285
 20
90.42726271029403
 30
0.0
 11
26.52801374659994
 21
90.59658915339406
 31
0.0
  0
LINE
  5
EC
330
1F
100
AcDbEntity
  8
レイヤー 1
 62
     7
370
    13
100
AcDbLine
 10
26.52801374659994
 20
90.59658915339406
 30
0.0
 11
26.31631262903134
 21
90.85066494543125
 31
0.0
  0
LINE
  5
ED
330
1F
100
AcDbEntity
  8
レイヤー 1
 62
     7
370
    13
100
AcDbLine
 10
26.31631262903134
 20
90.85066494543125
 30
0.0
 11
26.14698618593131
 21
91.18931783163129
 31
0.0
  0
LINE
  5
EE
330
1F
100
AcDbEntity
  8
レイヤー 1
 62
     7
370
    13
100
AcDbLine
 10
26.14698618593131
 20
91.18931783163129
 30
0.0
 11
26.02003441729984
 21
91.57034539229994
 31
0.0
  0
LINE
  5
EF
330
1F
100
AcDbEntity
  8
レイヤー 1
 62
     7
370
    13
100
AcDbLine
 10
26.02003441729984
 20
91.57034539229994
 30
0.0
 11
25.97765974283128
 21
92.03595004713145
 31
0.0
  0
LINE
  5
F0
330
1F
100
AcDbEntity
  8
レイヤー 1
 62
     7
370
    13
100
AcDbLine
 10
25.97765974283128
 20
92.03595004713145
 30
0.0
 11
25.93528506836272
 21
92.50155470196296
 31
0.0
  0
LINE
  5
F1
330
1F
100
AcDbEntity
  8
レイヤー 1
 62
     7
370
    13
100
AcDbLine
 10
25.93528506836272
 20
92.50155470196296
 30
0.0
 11
25.97765974283128
 21
93.0097062860373
 31
0.0
  0
LINE
  5
F2
330
1F
100
AcDbEntity
  8
レイヤー 1
 62
     7
370
    13
100
AcDbLine
 10
25.97765974283128
 20
93.0097062860373
 30
0.0
 11
26.10461151146272
 21
93.5176856153374
 31
0.0
  0
LINE
  5
F3
330
1F
100
AcDbEntity
  8
レイヤー 1
 62
     7
370
    13
100
AcDbLine
 10
26.10461151146272
 20
93.5176856153374
 30
0.0
 11
26.23173553486846
 21
93.98329027016891
 31
0.0
  0
LINE
  5
F4
330
1F
100
AcDbEntity
  8
レイヤー 1
 62
     7
370
    13
100
AcDbLine
 10
26.23173553486846
 20
93.98329027016891
 30
0.0
 11
26.44326439766279
 21
94.40669250530613
 31
0.0
  0
LINE
  5
F5
330
1F
100
AcDbEntity
  8
レイヤー 1
 62
     7
370
    13
100
AcDbLine
 10
26.44326439766279
 20
94.40669250530613
 30
0.0
 11
26.69734018969997
 21
94.78772006597475
 31
0.0
  0
LINE
  5
F6
330
1F
100
AcDbEntity
  8
レイヤー 1
 62
     7
370
    13
100
AcDbLine
 10
26.69734018969997
 20
94.78772006597475
 30
0.0
 11
26.95141598173716
 21
95.12637295217482
 31
0.0
  0
LINE
  5
F7
330
1F
100
AcDbEntity
  8
レイヤー 1
 62
     7
370
    13
100
AcDbLine
 10
26.95141598173716
 20
95.12637295217482
 30
0.0
 11
27.24769419346863
 21
95.33790181496914
 31
0.0
  0
LINE
  5
F8
330
1F
100
AcDbEntity
  8
レイヤー 1
 62
     7
370
    13
100
AcDbLine
 10
27.0783677503686
 20
90.38488803582547
 30
0.0
 11
27.0783677503686
 21
90.34268561613115
 31
0.0
  0
LINE
  5
F9
330
1F
100
AcDbEntity
  8
レイヤー 1
 62
     7
370
    13
100
AcDbLine
 10
27.0783677503686
 20
90.38488803582547
 30
0.0
 11
27.16294484453148
 21
90.38488803582547
 31
0.0
  0
LINE
  5
FA
330
1F
100
AcDbEntity
  8
レイヤー 1
 62
     7
370
    13
100
AcDbLine
 10
27.16294484453148
 20
90.38488803582547
 30
0.0
 11
27.20531951900007
 21
90.38488803582547
 31
0.0
  0
LINE
  5
FB
330
1F
100
AcDbEntity
  8
レイヤー 1
 62
     7
370
    13
100
AcDbLine
 10
27.20531951900007
 20
90.38488803582547
 30
0.0
 11
27.29006886793719
 21
90.38488803582547
 31
0.0
  0
LINE
  5
FC
330
1F
100
AcDbEntity
  8
レイヤー 1
 62
     7
370
    13
100
AcDbLine
 10
27.29006886793719
 20
90.34268561613115
 30
0.0
 11
27.29006886793719
 21
90.38488803582547
 31
0.0
  0
LINE
  5
FD
330
1F
100
AcDbEntity
  8
レイヤー 1
 62
     7
370
    13
100
AcDbLine
 10
27.45939531103723
 20
95.46502583837486
 30
0.0
 11
27.75567352276873
 21
95.54960293253777
 31
0.0
  0
LINE
  5
FE
330
1F
100
AcDbEntity
  8
レイヤー 1
 62
     7
370
    13
100
AcDbLine
 10
27.75567352276873
 20
95.54960293253777
 30
0.0
 11
28.05195173450021
 21
95.50740051284345
 31
0.0
  0
LINE
  5
FF
330
1F
100
AcDbEntity
  8
レイヤー 1
 62
     7
370
    13
100
AcDbLine
 10
28.05195173450021
 20
95.50740051284345
 30
0.0
 11
28.34840220100595
 21
95.38027648943773
 31
0.0
  0
LINE
  5
100
330
1F
100
AcDbEntity
  8
レイヤー 1
 62
     7
370
    13
100
AcDbLine
 10
28.34840220100595
 20
95.38027648943773
 30
0.0
 11
28.55993106380031
 21
95.16874762664338
 31
0.0
  0
LINE
  5
101
330
1F
100
AcDbEntity
  8
レイヤー 1
 62
     7
370
    13
100
AcDbLine
 10
28.55993106380031
 20
95.16874762664338
 30
0.0
 11
28.7716321813689
 21
94.87229716013763
 31
0.0
  0
LINE
  5
102
330
1F
100
AcDbEntity
  8
レイヤー 1
 62
     7
370
    13
100
AcDbLine
 10
28.7716321813689
 20
94.87229716013763
 30
0.0
 11
28.89858395000034
 21
94.53364427393757
 31
0.0
  0
LINE
  5
103
330
1F
100
AcDbEntity
  8
レイヤー 1
 62
     7
370
    13
100
AcDbLine
 10
28.89858395000034
 20
94.53364427393757
 30
0.0
 11
29.02570797340606
 21
94.11041429357462
 31
0.0
  0
LINE
  5
104
330
1F
100
AcDbEntity
  8
レイヤー 1
 62
     7
370
    13
100
AcDbLine
 10
29.02570797340606
 20
94.11041429357462
 30
0.0
 11
29.06808264787465
 21
93.64463738396887
 31
0.0
  0
LINE
  5
105
330
1F
100
AcDbEntity
  8
レイヤー 1
 62
     7
370
    13
100
AcDbLine
 10
29.06808264787465
 20
93.64463738396887
 30
0.0
 11
29.02570797340606
 21
93.13665805466877
 31
0.0
  0
LINE
  5
106
330
1F
100
AcDbEntity
  8
レイヤー 1
 62
     7
370
    13
100
AcDbLine
 10
29.02570797340606
 20
93.13665805466877
 30
0.0
 11
28.94095862446893
 21
92.62867872536867
 31
0.0
  0
LINE
  5
107
330
1F
100
AcDbEntity
  8
レイヤー 1
 62
     7
370
    13
100
AcDbLine
 10
28.94095862446893
 20
92.62867872536867
 30
0.0
 11
28.81400685583746
 21
92.1206993960686
 31
0.0
  0
LINE
  5
108
330
1F
100
AcDbEntity
  8
レイヤー 1
 62
     7
370
    13
100
AcDbLine
 10
28.81400685583746
 20
92.1206993960686
 30
0.0
 11
28.64468041273743
 21
91.69729716093138
 31
0.0
  0
LINE
  5
109
330
1F
100
AcDbEntity
  8
レイヤー 1
 62
     7
370
    13
100
AcDbLine
 10
28.64468041273743
 20
91.69729716093138
 30
0.0
 11
28.43297929516883
 21
91.27406718056844
 31
0.0
  0
LINE
  5
10A
330
1F
100
AcDbEntity
  8
レイヤー 1
 62
     7
370
    13
100
AcDbLine
 10
28.43297929516883
 20
91.27406718056844
 30
0.0
 11
28.17907575790592
 21
90.89303961989981
 31
0.0
  0
LINE
  5
10B
330
1F
100
AcDbEntity
  8
レイヤー 1
 62
     7
370
    13
100
AcDbLine
 10
28.17907575790592
 20
90.89303961989981
 30
0.0
 11
27.88262529140017
 21
90.63896382786263
 31
0.0
  0
LINE
  5
10C
330
1F
100
AcDbEntity
  8
レイヤー 1
 62
     7
370
    13
100
AcDbLine
 10
27.88262529140017
 20
90.63896382786263
 30
0.0
 11
27.5863470796687
 21
90.46963738476259
 31
0.0
  0
LINE
  5
10D
330
1F
100
AcDbEntity
  8
レイヤー 1
 62
     7
370
    13
100
AcDbLine
 10
27.5863470796687
 20
90.46963738476259
 30
0.0
 11
27.29006886793719
 21
90.34268561613115
 31
0.0
  0
LINE
  5
10E
330
1F
100
AcDbEntity
  8
レイヤー 1
 62
     7
370
    13
100
AcDbLine
 10
33.17429195674391
 20
89.5382558203253
 30
0.0
 11
33.17429195674391
 21
89.70758226342534
 31
0.0
  0
LINE
  5
10F
330
1F
100
AcDbEntity
  8
レイヤー 1
 62
     7
370
    13
100
AcDbLine
 10
34.19025061534411
 20
89.32655470275671
 30
0.0
 11
34.23262528981267
 21
89.32655470275671
 31
0.0
  0
POINT
  5
110
330
1F
100
AcDbEntity
  8
レイヤー 1
 62
     7
370
    13
100
AcDbPoint
 10
33.34361839984395
 20
98.34374762584963
 30
0.0
  0
LINE
  5
111
330
1F
100
AcDbEntity
  8
レイヤー 1
 62
     7
370
    13
100
AcDbLine
 10
33.34361839984395
 20
98.34374762584963
 30
0.0
 11
33.30141598014966
 21
98.34374762584963
 31
0.0
  0
LINE
  5
112
330
1F
100
AcDbEntity
  8
レイヤー 1
 62
     7
370
    13
100
AcDbLine
 10
33.30141598014966
 20
98.34374762584963
 30
0.0
 11
33.25904130568107
 21
98.30137295138107
 31
0.0
  0
LINE
  5
113
330
1F
100
AcDbEntity
  8
レイヤー 1
 62
     7
370
    13
100
AcDbLine
 10
33.25904130568107
 20
98.30137295138107
 30
0.0
 11
33.25904130568107
 21
98.25899827691248
 31
0.0
  0
POINT
  5
114
330
1F
100
AcDbEntity
  8
レイヤー 1
 62
     7
370
    13
100
AcDbPoint
 10
22.04060462228777
 20
95.2109500463377
 30
0.0
  0
LINE
  5
115
330
1F
100
AcDbEntity
  8
レイヤー 1
 62
     7
370
    13
100
AcDbLine
 10
22.04060462228777
 20
95.2109500463377
 30
0.0
 11
21.99840220259345
 21
95.16874762664338
 31
0.0
  0
LINE
  5
116
330
1F
100
AcDbEntity
  8
レイヤー 1
 62
     7
370
    13
100
AcDbLine
 10
21.99840220259345
 20
95.16874762664338
 30
0.0
 11
21.99840220259345
 21
95.12637295217482
 31
0.0
  0
LINE
  5
117
330
1F
100
AcDbEntity
  8
レイヤー 1
 62
     7
370
    13
100
AcDbLine
 10
33.34361839984395
 20
98.34374762584963
 30
0.0
 11
33.34361839984395
 21
98.25899827691248
 31
0.0
  0
LINE
  5
118
330
1F
100
AcDbEntity
  8
レイヤー 1
 62
     7
370
    13
100
AcDbLine
 10
26.99361840143145
 20
94.9992489287691
 30
0.0
 11
26.90904130726857
 21
94.9992489287691
 31
0.0
  0
LINE
  5
119
330
1F
100
AcDbEntity
  8
レイヤー 1
 62
     7
370
    13
100
AcDbLine
 10
33.34361839984395
 20
98.34374762584963
 30
0.0
 11
33.47074242324966
 21
98.30137295138107
 31
0.0
  0
LINE
  5
11A
330
1F
100
AcDbEntity
  8
レイヤー 1
 62
     7
370
    13
100
AcDbLine
 10
27.45939531103723
 20
95.46502583837486
 30
0.0
 11
27.54397240520011
 21
95.46502583837486
 31
0.0
  0
LINE
  5
11B
330
1F
100
AcDbEntity
  8
レイヤー 1
 62
     7
370
    13
100
AcDbLine
 10
27.54397240520011
 20
95.46502583837486
 30
0.0
 11
27.84025061693161
 21
95.54960293253777
 31
0.0
  0
LINE
  5
11C
330
1F
100
AcDbEntity
  8
レイヤー 1
 62
     7
370
    13
100
AcDbLine
 10
27.84025061693161
 20
95.54960293253777
 30
0.0
 11
28.05195173450021
 21
95.50740051284345
 31
0.0
  0
LINE
  5
11D
330
1F
100
AcDbEntity
  8
レイヤー 1
 62
     7
370
    13
100
AcDbLine
 10
28.17907575790592
 20
95.46502583837486
 30
0.0
 11
28.22127817760024
 21
95.4226511639063
 31
0.0
  0
LINE
  5
11E
330
1F
100
AcDbEntity
  8
レイヤー 1
 62
     7
370
    13
100
AcDbLine
 10
28.22127817760024
 20
95.4226511639063
 30
0.0
 11
28.34840220100595
 21
95.38027648943773
 31
0.0
  0
LINE
  5
11F
330
1F
100
AcDbEntity
  8
レイヤー 1
 62
     7
370
    13
100
AcDbLine
 10
27.41702063656867
 20
90.38488803582547
 30
0.0
 11
27.37464596210008
 21
90.38488803582547
 31
0.0
  0
LINE
  5
120
330
1F
100
AcDbEntity
  8
レイヤー 1
 62
     7
370
    13
100
AcDbLine
 10
28.51772864410599
 20
95.25332472080626
 30
0.0
 11
28.43297929516883
 21
95.29569939527485
 31
0.0
  0
LINE
  5
121
330
1F
100
AcDbEntity
  8
レイヤー 1
 62
     7
370
    13
100
AcDbLine
 10
28.43297929516883
 20
95.29569939527485
 30
0.0
 11
28.39060462070027
 21
95.33790181496914
 31
0.0
  0
LINE
  5
122
330
1F
100
AcDbEntity
  8
レイヤー 1
 62
     7
370
    13
100
AcDbLine
 10
28.39060462070027
 20
95.33790181496914
 30
0.0
 11
28.30602752653739
 21
95.38027648943773
 31
0.0
  0
LINE
  5
123
330
1F
100
AcDbEntity
  8
レイヤー 1
 62
     7
370
    13
100
AcDbLine
 10
28.30602752653739
 20
95.38027648943773
 30
0.0
 11
28.22127817760024
 21
95.4226511639063
 31
0.0
  0
LINE
  5
124
330
1F
100
AcDbEntity
  8
レイヤー 1
 62
     7
370
    13
100
AcDbLine
 10
28.22127817760024
 20
95.4226511639063
 30
0.0
 11
28.13670108343736
 21
95.46502583837486
 31
0.0
  0
LINE
  5
125
330
1F
100
AcDbEntity
  8
レイヤー 1
 62
     7
370
    13
100
AcDbLine
 10
28.13670108343736
 20
95.46502583837486
 30
0.0
 11
28.05195173450021
 21
95.46502583837486
 31
0.0
  0
LINE
  5
126
330
1F
100
AcDbEntity
  8
レイヤー 1
 62
     7
370
    13
100
AcDbLine
 10
28.05195173450021
 20
95.46502583837486
 30
0.0
 11
27.96737464033733
 21
95.46502583837486
 31
0.0
  0
LINE
  5
127
330
1F
100
AcDbEntity
  8
レイヤー 1
 62
     7
370
    13
100
AcDbLine
 10
27.96737464033733
 20
95.46502583837486
 30
0.0
 11
27.88262529140017
 21
95.46502583837486
 31
0.0
  0
LINE
  5
128
330
1F
100
AcDbEntity
  8
レイヤー 1
 62
     7
370
    13
100
AcDbLine
 10
27.88262529140017
 20
95.46502583837486
 30
0.0
 11
27.79804819723729
 21
95.46502583837486
 31
0.0
  0
LINE
  5
129
330
1F
100
AcDbEntity
  8
レイヤー 1
 62
     7
370
    13
100
AcDbLine
 10
27.79804819723729
 20
95.46502583837486
 30
0.0
 11
27.71329884830014
 21
95.46502583837486
 31
0.0
  0
LINE
  5
12A
330
1F
100
AcDbEntity
  8
レイヤー 1
 62
     7
370
    13
100
AcDbLine
 10
27.71329884830014
 20
95.46502583837486
 30
0.0
 11
27.62872175413726
 21
95.4226511639063
 31
0.0
  0
LINE
  5
12B
330
1F
100
AcDbEntity
  8
レイヤー 1
 62
     7
370
    13
100
AcDbLine
 10
27.62872175413726
 20
95.4226511639063
 30
0.0
 11
27.54397240520011
 21
95.4226511639063
 31
0.0
  0
LINE
  5
12C
330
1F
100
AcDbEntity
  8
レイヤー 1
 62
     7
370
    13
100
AcDbLine
 10
27.54397240520011
 20
90.42726271029403
 30
0.0
 11
27.37464596210008
 21
90.38488803582547
 31
0.0
  0
LINE
  5
12D
330
1F
100
AcDbEntity
  8
レイヤー 1
 62
     7
370
    13
100
AcDbLine
 10
27.0783677503686
 20
90.38488803582547
 30
0.0
 11
26.8666666328
 21
90.46963738476259
 31
0.0
  0
LINE
  5
12E
330
1F
100
AcDbEntity
  8
レイヤー 1
 62
     7
370
    13
100
AcDbLine
 10
26.8666666328
 20
90.46963738476259
 30
0.0
 11
26.65496551523138
 21
90.63896382786263
 31
0.0
  0
LINE
  5
12F
330
1F
100
AcDbEntity
  8
レイヤー 1
 62
     7
370
    13
100
AcDbLine
 10
26.65496551523138
 20
90.63896382786263
 30
0.0
 11
26.44326439766279
 21
90.89303961989981
 31
0.0
  0
LINE
  5
130
330
1F
100
AcDbEntity
  8
レイヤー 1
 62
     7
370
    13
100
AcDbLine
 10
26.44326439766279
 20
90.89303961989981
 30
0.0
 11
26.27393795456275
 21
91.18931783163129
 31
0.0
  0
LINE
  5
131
330
1F
100
AcDbEntity
  8
レイヤー 1
 62
     7
370
    13
100
AcDbLine
 10
26.27393795456275
 20
91.18931783163129
 30
0.0
 11
26.14698618593131
 21
91.6127200667685
 31
0.0
  0
LINE
  5
132
330
1F
100
AcDbEntity
  8
レイヤー 1
 62
     7
370
    13
100
AcDbLine
 10
26.14698618593131
 20
91.6127200667685
 30
0.0
 11
26.06240909176843
 21
92.03595004713145
 31
0.0
  0
LINE
  5
133
330
1F
100
AcDbEntity
  8
レイヤー 1
 62
     7
370
    13
100
AcDbLine
 10
26.06240909176843
 20
92.03595004713145
 30
0.0
 11
26.06240909176843
 21
92.50155470196296
 31
0.0
  0
LINE
  5
134
330
1F
100
AcDbEntity
  8
レイヤー 1
 62
     7
370
    13
100
AcDbLine
 10
26.06240909176843
 20
92.50155470196296
 30
0.0
 11
26.10461151146272
 21
93.0097062860373
 31
0.0
  0
LINE
  5
135
330
1F
100
AcDbEntity
  8
レイヤー 1
 62
     7
370
    13
100
AcDbLine
 10
26.10461151146272
 20
93.0097062860373
 30
0.0
 11
26.18936086039987
 21
93.47531094086884
 31
0.0
  0
LINE
  5
136
330
1F
100
AcDbEntity
  8
レイヤー 1
 62
     7
370
    13
100
AcDbLine
 10
26.18936086039987
 20
93.47531094086884
 30
0.0
 11
26.35868730349991
 21
93.94091559570035
 31
0.0
  0
LINE
  5
137
330
1F
100
AcDbEntity
  8
レイヤー 1
 62
     7
370
    13
100
AcDbLine
 10
26.35868730349991
 20
93.94091559570035
 30
0.0
 11
26.5703884210685
 21
94.36431783083754
 31
0.0
  0
LINE
  5
138
330
1F
100
AcDbEntity
  8
レイヤー 1
 62
     7
370
    13
100
AcDbLine
 10
26.5703884210685
 20
94.36431783083754
 30
0.0
 11
26.78191728386285
 21
94.74534539150619
 31
0.0
  0
LINE
  5
139
330
1F
100
AcDbEntity
  8
レイヤー 1
 62
     7
370
    13
100
AcDbLine
 10
26.78191728386285
 20
94.74534539150619
 30
0.0
 11
27.03599307590004
 21
95.04162360323767
 31
0.0
  0
LINE
  5
13A
330
1F
100
AcDbEntity
  8
レイヤー 1
 62
     7
370
    13
100
AcDbLine
 10
27.03599307590004
 20
95.04162360323767
 30
0.0
 11
27.33227128763151
 21
95.29569939527485
 31
0.0
  0
LINE
  5
13B
330
1F
100
AcDbEntity
  8
レイヤー 1
 62
     7
370
    13
100
AcDbLine
 10
27.54397240520011
 20
95.4226511639063
 30
0.0
 11
27.45939531103723
 21
95.38027648943773
 31
0.0
  0
LINE
  5
13C
330
1F
100
AcDbEntity
  8
レイヤー 1
 62
     7
370
    13
100
AcDbLine
 10
27.45939531103723
 20
95.38027648943773
 30
0.0
 11
27.41702063656867
 21
95.33790181496914
 31
0.0
  0
LINE
  5
13D
330
1F
100
AcDbEntity
  8
レイヤー 1
 62
     7
370
    13
100
AcDbLine
 10
27.41702063656867
 20
95.33790181496914
 30
0.0
 11
27.33227128763151
 21
95.29569939527485
 31
0.0
  0
LINE
  5
13E
330
1F
100
AcDbEntity
  8
レイヤー 1
 62
     7
370
    13
100
AcDbLine
 10
27.37464596210008
 20
90.38488803582547
 30
0.0
 11
27.29006886793719
 21
90.38488803582547
 31
0.0
  0
LINE
  5
13F
330
1F
100
AcDbEntity
  8
レイヤー 1
 62
     7
370
    13
100
AcDbLine
 10
27.03599307590004
 20
90.34268561613115
 30
0.0
 11
26.8666666328
 21
90.42726271029403
 31
0.0
  0
LINE
  5
140
330
1F
100
AcDbEntity
  8
レイヤー 1
 62
     7
370
    13
100
AcDbLine
 10
26.8666666328
 20
90.42726271029403
 30
0.0
 11
26.61259084076282
 21
90.59658915339406
 31
0.0
  0
LINE
  5
141
330
1F
100
AcDbEntity
  8
レイヤー 1
 62
     7
370
    13
100
AcDbLine
 10
26.61259084076282
 20
90.59658915339406
 30
0.0
 11
26.4010619779685
 21
90.85066494543125
 31
0.0
  0
LINE
  5
142
330
1F
100
AcDbEntity
  8
レイヤー 1
 62
     7
370
    13
100
AcDbLine
 10
26.4010619779685
 20
90.85066494543125
 30
0.0
 11
26.23173553486846
 21
91.14694315716272
 31
0.0
  0
LINE
  5
143
330
1F
100
AcDbEntity
  8
レイヤー 1
 62
     7
370
    13
100
AcDbLine
 10
26.23173553486846
 20
91.14694315716272
 30
0.0
 11
26.10461151146272
 21
91.57034539229994
 31
0.0
  0
LINE
  5
144
330
1F
100
AcDbEntity
  8
レイヤー 1
 62
     7
370
    13
100
AcDbLine
 10
26.10461151146272
 20
91.57034539229994
 30
0.0
 11
26.06240909176843
 21
91.99374762743713
 31
0.0
  0
LINE
  5
145
330
1F
100
AcDbEntity
  8
レイヤー 1
 62
     7
370
    13
100
AcDbLine
 10
26.06240909176843
 20
91.99374762743713
 30
0.0
 11
26.02003441729984
 21
92.50155470196296
 31
0.0
  0
LINE
  5
146
330
1F
100
AcDbEntity
  8
レイヤー 1
 62
     7
370
    13
100
AcDbLine
 10
26.02003441729984
 20
92.50155470196296
 30
0.0
 11
26.06240909176843
 21
93.0097062860373
 31
0.0
  0
LINE
  5
147
330
1F
100
AcDbEntity
  8
レイヤー 1
 62
     7
370
    13
100
AcDbLine
 10
26.06240909176843
 20
93.0097062860373
 30
0.0
 11
26.18936086039987
 21
93.47531094086884
 31
0.0
  0
LINE
  5
148
330
1F
100
AcDbEntity
  8
レイヤー 1
 62
     7
370
    13
100
AcDbLine
 10
26.18936086039987
 20
93.47531094086884
 30
0.0
 11
26.31631262903134
 21
93.98329027016891
 31
0.0
  0
LINE
  5
149
330
1F
100
AcDbEntity
  8
レイヤー 1
 62
     7
370
    13
100
AcDbLine
 10
26.31631262903134
 20
93.98329027016891
 30
0.0
 11
26.52801374659994
 21
94.40669250530613
 31
0.0
  0
LINE
  5
14A
330
1F
100
AcDbEntity
  8
レイヤー 1
 62
     7
370
    13
100
AcDbLine
 10
26.52801374659994
 20
94.40669250530613
 30
0.0
 11
26.78191728386285
 21
94.78772006597475
 31
0.0
  0
LINE
  5
14B
330
1F
100
AcDbEntity
  8
レイヤー 1
 62
     7
370
    13
100
AcDbLine
 10
26.78191728386285
 20
94.78772006597475
 30
0.0
 11
27.03599307590004
 21
95.08399827770623
 31
0.0
  0
LINE
  5
14C
330
1F
100
AcDbEntity
  8
レイヤー 1
 62
     7
370
    13
100
AcDbLine
 10
27.03599307590004
 20
95.08399827770623
 30
0.0
 11
27.24769419346863
 21
95.29569939527485
 31
0.0
  0
LINE
  5
14D
330
1F
100
AcDbEntity
  8
レイヤー 1
 62
     7
370
    13
100
AcDbLine
 10
27.54397240520011
 20
95.4226511639063
 30
0.0
 11
27.45939531103723
 21
95.4226511639063
 31
0.0
  0
LINE
  5
14E
330
1F
100
AcDbEntity
  8
レイヤー 1
 62
     7
370
    13
100
AcDbLine
 10
27.33227128763151
 20
95.29569939527485
 30
0.0
 11
27.24769419346863
 21
95.29569939527485
 31
0.0
  0
LINE
  5
14F
330
1F
100
AcDbEntity
  8
レイヤー 1
 62
     7
370
    13
100
AcDbLine
 10
27.67092417383158
 20
95.4226511639063
 30
0.0
 11
27.54397240520011
 21
95.46502583837486
 31
0.0
  0
POINT
  5
150
330
1F
100
AcDbEntity
  8
レイヤー 1
 62
     7
370
    13
100
AcDbPoint
 10
21.57499996745624
 20
86.61733161315624
 30
0.0
  0
LINE
  5
151
330
1F
100
AcDbEntity
  8
レイヤー 1
 62
     7
370
    13
100
AcDbLine
 10
21.57499996745624
 20
86.61733161315624
 30
0.0
 11
21.53262529298767
 21
86.61733161315624
 31
0.0
  0
LINE
  5
152
330
1F
100
AcDbEntity
  8
レイヤー 1
 62
     7
370
    13
100
AcDbLine
 10
21.53262529298767
 20
86.61733161315624
 30
0.0
 11
21.53262529298767
 21
86.57495693868768
 31
0.0
  0
LINE
  5
153
330
1F
100
AcDbEntity
  8
レイヤー 1
 62
     7
370
    13
100
AcDbLine
 10
21.53262529298767
 20
86.57495693868768
 30
0.0
 11
21.57499996745624
 21
86.57495693868768
 31
0.0
  0
POINT
  5
154
330
1F
100
AcDbEntity
  8
レイヤー 1
 62
     7
370
    13
100
AcDbPoint
 10
21.87127817918774
 20
95.04162360323767
 30
0.0
  0
LINE
  5
155
330
1F
100
AcDbEntity
  8
レイヤー 1
 62
     7
370
    13
100
AcDbLine
 10
21.87127817918774
 20
95.04162360323767
 30
0.0
 11
21.82907575949342
 21
95.04162360323767
 31
0.0
  0
LINE
  5
156
330
1F
100
AcDbEntity
  8
レイヤー 1
 62
     7
370
    13
100
AcDbLine
 10
299.620388352806
 20
37.12956849618789
 30
0.0
 11
298.3505261569429
 21
37.38364428822507
 31
0.0
  0
LINE
  5
157
330
1F
100
AcDbEntity
  8
レイヤー 1
 62
     7
370
    13
100
AcDbLine
 10
298.3505261569429
 20
37.38364428822507
 30
0.0
 11
34.48670108184986
 21
89.49605340063101
 31
0.0
  0
LINE
  5
158
330
1F
100
AcDbEntity
  8
レイヤー 1
 62
     7
370
    13
100
AcDbLine
 10
34.48670108184986
 20
89.49605340063101
 30
0.0
 11
33.2166666312125
 21
89.74995693789393
 31
0.0
  0
LINE
  5
159
330
1F
100
AcDbEntity
  8
レイヤー 1
 62
     7
370
    13
100
AcDbLine
 10
33.51294484294398
 20
98.42832472001251
 30
0.0
 11
33.2166666312125
 21
89.74995693789393
 31
0.0
  0
LINE
  5
15A
330
1F
100
AcDbEntity
  8
レイヤー 1
 62
     7
370
    13
100
AcDbLine
 10
299.9166665645375
 20
45.8079362783065
 30
0.0
 11
33.51294484294398
 21
98.42832472001251
 31
0.0
  0
LINE
  5
15B
330
1F
100
AcDbEntity
  8
レイヤー 1
 62
     7
370
    13
100
AcDbLine
 10
299.9166665645375
 20
45.8079362783065
 30
0.0
 11
299.620388352806
 21
37.12956849618789
 31
0.0
  0
LINE
  5
15C
330
1F
100
AcDbEntity
  8
レイヤー 1
 62
     7
370
    13
100
AcDbLine
 10
21.82907575949342
 20
95.25332472080626
 30
0.0
 11
21.82907575949342
 21
95.2109500463377
 31
0.0
  0
LINE
  5
15D
330
1F
100
AcDbEntity
  8
レイヤー 1
 62
     7
370
    13
100
AcDbLine
 10
21.82907575949342
 20
95.2109500463377
 30
0.0
 11
21.78670108502486
 21
95.16874762664338
 31
0.0
  0
LINE
  5
15E
330
1F
100
AcDbEntity
  8
レイヤー 1
 62
     7
370
    13
100
AcDbLine
 10
21.78670108502486
 20
95.16874762664338
 30
0.0
 11
21.78670108502486
 21
95.12637295217482
 31
0.0
  0
LINE
  5
15F
330
1F
100
AcDbEntity
  8
レイヤー 1
 62
     7
370
    13
100
AcDbLine
 10
21.49025061851911
 20
86.4480051700562
 30
0.0
 11
21.78670108502486
 21
95.12637295217482
 31
0.0
  0
LINE
  5
160
330
1F
100
AcDbEntity
  8
レイヤー 1
 62
     7
370
    13
100
AcDbLine
 10
21.44804819882479
 20
86.4480051700562
 30
0.0
 11
21.49025061851911
 21
86.4480051700562
 31
0.0
  0
LINE
  5
161
330
1F
100
AcDbEntity
  8
レイヤー 1
 62
     7
370
    13
100
AcDbLine
 10
21.44804819882479
 20
86.4480051700562
 30
0.0
 11
21.74432641055627
 21
95.12637295217482
 31
0.0
  0
LINE
  5
162
330
1F
100
AcDbEntity
  8
レイヤー 1
 62
     7
370
    13
100
AcDbLine
 10
21.82907575949342
 20
95.29569939527485
 30
0.0
 11
21.78670108502486
 21
95.25332472080626
 31
0.0
  0
LINE
  5
163
330
1F
100
AcDbEntity
  8
レイヤー 1
 62
     7
370
    13
100
AcDbLine
 10
21.78670108502486
 20
95.25332472080626
 30
0.0
 11
21.78670108502486
 21
95.2109500463377
 31
0.0
  0
LINE
  5
164
330
1F
100
AcDbEntity
  8
レイヤー 1
 62
     7
370
    13
100
AcDbLine
 10
21.78670108502486
 20
95.2109500463377
 30
0.0
 11
21.74432641055627
 21
95.2109500463377
 31
0.0
  0
LINE
  5
165
330
1F
100
AcDbEntity
  8
レイヤー 1
 62
     7
370
    13
100
AcDbLine
 10
21.74432641055627
 20
95.2109500463377
 30
0.0
 11
21.74432641055627
 21
95.16874762664338
 31
0.0
  0
LINE
  5
166
330
1F
100
AcDbEntity
  8
レイヤー 1
 62
     7
370
    13
100
AcDbLine
 10
21.74432641055627
 20
95.16874762664338
 30
0.0
 11
21.74432641055627
 21
95.12637295217482
 31
0.0
  0
LINE
  5
167
330
1F
100
AcDbEntity
  8
レイヤー 1
 62
     7
370
    13
100
AcDbLine
 10
21.82907575949342
 20
95.29569939527485
 30
0.0
 11
33.4283677487811
 21
98.5129018141754
 31
0.0
  0
POINT
  5
168
330
1F
100
AcDbEntity
  8
レイヤー 1
 62
     7
370
    13
100
AcDbPoint
 10
33.51294484294398
 20
98.42832472001251
 30
0.0
  0
LINE
  5
169
330
1F
100
AcDbEntity
  8
レイヤー 1
 62
     7
370
    13
100
AcDbLine
 10
33.51294484294398
 20
98.42832472001251
 30
0.0
 11
33.51294484294398
 21
98.4706993944811
 31
0.0
  0
LINE
  5
16A
330
1F
100
AcDbEntity
  8
レイヤー 1
 62
     7
370
    13
100
AcDbLine
 10
33.51294484294398
 20
98.4706993944811
 30
0.0
 11
33.51294484294398
 21
98.5129018141754
 31
0.0
  0
LINE
  5
16B
330
1F
100
AcDbEntity
  8
レイヤー 1
 62
     7
370
    13
100
AcDbLine
 10
33.51294484294398
 20
98.5129018141754
 30
0.0
 11
33.47074242324966
 21
98.5129018141754
 31
0.0
  0
LINE
  5
16C
330
1F
100
AcDbEntity
  8
レイヤー 1
 62
     7
370
    13
100
AcDbLine
 10
33.47074242324966
 20
98.5129018141754
 30
0.0
 11
33.4283677487811
 21
98.5129018141754
 31
0.0
  0
LINE
  5
16D
330
1F
100
AcDbEntity
  8
レイヤー 1
 62
     7
370
    13
100
AcDbLine
 10
33.17429195674391
 20
89.70758226342534
 30
0.0
 11
33.2166666312125
 21
89.74995693789393
 31
0.0
  0
LINE
  5
16E
330
1F
100
AcDbEntity
  8
レイヤー 1
 62
     7
370
    13
100
AcDbLine
 10
33.17429195674391
 20
89.70758226342534
 30
0.0
 11
33.47074242324966
 21
98.4706993944811
 31
0.0
  0
LINE
  5
16F
330
1F
100
AcDbEntity
  8
レイヤー 1
 62
     7
370
    13
100
AcDbLine
 10
21.82907575949342
 20
95.25332472080626
 30
0.0
 11
33.47074242324966
 21
98.4706993944811
 31
0.0
  0
LINE
  5
170
330
1F
100
AcDbEntity
  8
レイヤー 1
 62
     7
370
    13
100
AcDbLine
 10
34.44432640738127
 20
89.45367872616242
 30
0.0
 11
33.17429195674391
 21
89.70758226342534
 31
0.0
  0
LINE
  5
171
330
1F
100
AcDbEntity
  8
レイヤー 1
 62
     7
370
    13
100
AcDbLine
 10
34.44432640738127
 20
89.45367872616242
 30
0.0
 11
34.48670108184986
 21
89.49605340063101
 31
0.0
  0
LINE
  5
172
330
1F
100
AcDbEntity
  8
レイヤー 1
 62
     7
370
    13
100
AcDbLine
 10
34.27499996428124
 20
89.36892937722527
 30
0.0
 11
34.27499996428124
 21
89.32655470275671
 31
0.0
  0
LINE
  5
173
330
1F
100
AcDbEntity
  8
レイヤー 1
 62
     7
370
    13
100
AcDbLine
 10
34.27499996428124
 20
89.32655470275671
 30
0.0
 11
34.31737463874983
 21
89.32655470275671
 31
0.0
  0
LINE
  5
174
330
1F
100
AcDbEntity
  8
レイヤー 1
 62
     7
370
    13
100
AcDbLine
 10
34.31737463874983
 20
89.32655470275671
 30
0.0
 11
34.31737463874983
 21
89.28435228306239
 31
0.0
  0
LINE
  5
175
330
1F
100
AcDbEntity
  8
レイヤー 1
 62
     7
370
    13
100
AcDbLine
 10
34.31737463874983
 20
89.28435228306239
 30
0.0
 11
34.35974931321839
 21
89.28435228306239
 31
0.0
  0
LINE
  5
176
330
1F
100
AcDbEntity
  8
レイヤー 1
 62
     7
370
    13
100
AcDbLine
 10
34.35974931321839
 20
89.28435228306239
 30
0.0
 11
34.40195173291271
 21
89.28435228306239
 31
0.0
  0
LINE
  5
177
330
1F
100
AcDbEntity
  8
レイヤー 1
 62
     7
370
    13
100
AcDbLine
 10
34.40195173291271
 20
89.28435228306239
 30
0.0
 11
34.44432640738127
 21
89.32655470275671
 31
0.0
  0
LINE
  5
178
330
1F
100
AcDbEntity
  8
レイヤー 1
 62
     7
370
    13
100
AcDbLine
 10
34.44432640738127
 20
89.28435228306239
 30
0.0
 11
34.44432640738127
 21
89.32655470275671
 31
0.0
  0
LINE
  5
179
330
1F
100
AcDbEntity
  8
レイヤー 1
 62
     7
370
    13
100
AcDbLine
 10
34.44432640738127
 20
89.28435228306239
 30
0.0
 11
34.44432640738127
 21
89.32655470275671
 31
0.0
  0
LINE
  5
17A
330
1F
100
AcDbEntity
  8
レイヤー 1
 62
     7
370
    13
100
AcDbLine
 10
34.44432640738127
 20
89.32655470275671
 30
0.0
 11
34.48670108184986
 21
89.36892937722527
 31
0.0
  0
LINE
  5
17B
330
1F
100
AcDbEntity
  8
レイヤー 1
 62
     7
370
    13
100
AcDbLine
 10
34.48670108184986
 20
89.36892937722527
 30
0.0
 11
34.48670108184986
 21
89.45367872616242
 31
0.0
  0
LINE
  5
17C
330
1F
100
AcDbEntity
  8
レイヤー 1
 62
     7
370
    13
100
AcDbLine
 10
34.48670108184986
 20
89.45367872616242
 30
0.0
 11
34.48670108184986
 21
89.49605340063101
 31
0.0
  0
LINE
  5
17D
330
1F
100
AcDbEntity
  8
レイヤー 1
 62
     7
370
    13
100
AcDbLine
 10
298.3505261569429
 20
37.38364428822507
 30
0.0
 11
298.3505261569429
 21
37.34126961375651
 31
0.0
  0
LINE
  5
17E
330
1F
100
AcDbEntity
  8
レイヤー 1
 62
     7
370
    13
100
AcDbLine
 10
298.3505261569429
 20
37.34126961375651
 30
0.0
 11
298.3078069729258
 21
37.25669251959363
 31
0.0
  0
LINE
  5
17F
330
1F
100
AcDbEntity
  8
レイヤー 1
 62
     7
370
    13
100
AcDbLine
 10
298.3078069729258
 20
37.25669251959363
 30
0.0
 11
298.3078069729258
 21
37.21431784512504
 31
0.0
  0
LINE
  5
180
330
1F
100
AcDbEntity
  8
レイヤー 1
 62
     7
370
    13
100
AcDbLine
 10
298.3078069729258
 20
37.21431784512504
 30
0.0
 11
298.2657768080058
 21
37.17194317065648
 31
0.0
  0
LINE
  5
181
330
1F
100
AcDbEntity
  8
レイヤー 1
 62
     7
370
    13
100
AcDbLine
 10
298.2657768080058
 20
37.17194317065648
 30
0.0
 11
298.2234021335372
 21
37.17194317065648
 31
0.0
  0
LINE
  5
182
330
1F
100
AcDbEntity
  8
レイヤー 1
 62
     7
370
    13
100
AcDbLine
 10
34.27499996428124
 20
89.36892937722527
 30
0.0
 11
34.27499996428124
 21
89.41130405169386
 31
0.0
  0
LINE
  5
183
330
1F
100
AcDbEntity
  8
レイヤー 1
 62
     7
370
    13
100
AcDbLine
 10
34.27499996428124
 20
89.41130405169386
 30
0.0
 11
34.35974931321839
 21
89.45367872616242
 31
0.0
  0
LINE
  5
184
330
1F
100
AcDbEntity
  8
レイヤー 1
 62
     7
370
    13
100
AcDbLine
 10
34.35974931321839
 20
89.45367872616242
 30
0.0
 11
34.35974931321839
 21
89.41130405169386
 31
0.0
  0
POINT
  5
185
330
1F
100
AcDbEntity
  8
レイヤー 1
 62
     7
370
    13
100
AcDbPoint
 10
34.35974931321839
 20
89.41130405169386
 30
0.0
  0
LINE
  5
186
330
1F
100
AcDbEntity
  8
レイヤー 1
 62
     7
370
    13
100
AcDbLine
 10
34.35974931321839
 20
89.41130405169386
 30
0.0
 11
34.35974931321839
 21
89.36892937722527
 31
0.0
  0
LINE
  5
187
330
1F
100
AcDbEntity
  8
レイヤー 1
 62
     7
370
    13
100
AcDbLine
 10
34.35974931321839
 20
89.36892937722527
 30
0.0
 11
34.40195173291271
 21
89.36892937722527
 31
0.0
  0
LINE
  5
188
330
1F
100
AcDbEntity
  8
レイヤー 1
 62
     7
370
    13
100
AcDbLine
 10
34.40195173291271
 20
89.36892937722527
 30
0.0
 11
34.40195173291271
 21
89.41130405169386
 31
0.0
  0
LINE
  5
189
330
1F
100
AcDbEntity
  8
レイヤー 1
 62
     7
370
    13
100
AcDbLine
 10
34.40195173291271
 20
89.41130405169386
 30
0.0
 11
34.44432640738127
 21
89.41130405169386
 31
0.0
  0
LINE
  5
18A
330
1F
100
AcDbEntity
  8
レイヤー 1
 62
     7
370
    13
100
AcDbLine
 10
34.44432640738127
 20
89.41130405169386
 30
0.0
 11
34.44432640738127
 21
89.45367872616242
 31
0.0
  0
LINE
  5
18B
330
1F
100
AcDbEntity
  8
レイヤー 1
 62
     7
370
    13
100
AcDbLine
 10
34.31737463874983
 20
89.28435228306239
 30
0.0
 11
34.44432640738127
 21
89.32655470275671
 31
0.0
  0
LINE
  5
18C
330
1F
100
AcDbEntity
  8
レイヤー 1
 62
     7
370
    13
100
AcDbLine
 10
34.31737463874983
 20
89.45367872616242
 30
0.0
 11
34.35974931321839
 21
89.45367872616242
 31
0.0
  0
LINE
  5
18D
330
1F
100
AcDbEntity
  8
レイヤー 1
 62
     7
370
    13
100
AcDbLine
 10
34.31737463874983
 20
89.45367872616242
 30
0.0
 11
34.31737463874983
 21
89.49605340063101
 31
0.0
  0
LINE
  5
18E
330
1F
100
AcDbEntity
  8
レイヤー 1
 62
     7
370
    13
100
AcDbLine
 10
34.27499996428124
 20
89.41130405169386
 30
0.0
 11
34.27499996428124
 21
89.36892937722527
 31
0.0
  0
LINE
  5
18F
330
1F
100
AcDbEntity
  8
レイヤー 1
 62
     7
370
    13
100
AcDbLine
 10
34.31737463874983
 20
89.45367872616242
 30
0.0
 11
34.27499996428124
 21
89.41130405169386
 31
0.0
  0
LINE
  5
190
330
1F
100
AcDbEntity
  8
レイヤー 1
 62
     7
370
    13
100
AcDbLine
 10
34.27499996428124
 20
89.49605340063101
 30
0.0
 11
34.27499996428124
 21
89.41130405169386
 31
0.0
  0
POINT
  5
191
330
1F
100
AcDbEntity
  8
レイヤー 1
 62
     7
370
    13
100
AcDbPoint
 10
299.8742918900689
 20
45.93488804693797
 30
0.0
  0
LINE
  5
192
330
1F
100
AcDbEntity
  8
レイヤー 1
 62
     7
370
    13
100
AcDbLine
 10
299.8742918900689
 20
45.93488804693797
 30
0.0
 11
299.9166665645375
 21
45.93488804693797
 31
0.0
  0
LINE
  5
193
330
1F
100
AcDbEntity
  8
レイヤー 1
 62
     7
370
    13
100
AcDbLine
 10
299.9166665645375
 20
45.93488804693797
 30
0.0
 11
299.9166665645375
 21
45.89268562724365
 31
0.0
  0
LINE
  5
194
330
1F
100
AcDbEntity
  8
レイヤー 1
 62
     7
370
    13
100
AcDbLine
 10
299.9166665645375
 20
45.89268562724365
 30
0.0
 11
299.9166665645375
 21
45.85031095277506
 31
0.0
  0
LINE
  5
195
330
1F
100
AcDbEntity
  8
レイヤー 1
 62
     7
370
    13
100
AcDbLine
 10
299.9166665645375
 20
45.85031095277506
 30
0.0
 11
299.9166665645375
 21
45.8079362783065
 31
0.0
  0
LINE
  5
196
330
1F
100
AcDbEntity
  8
レイヤー 1
 62
     7
370
    13
100
AcDbLine
 10
21.82907575949342
 20
95.25332472080626
 30
0.0
 11
21.82907575949342
 21
95.2109500463377
 31
0.0
  0
LINE
  5
197
330
1F
100
AcDbEntity
  8
レイヤー 1
 62
     7
370
    13
100
AcDbLine
 10
21.82907575949342
 20
95.2109500463377
 30
0.0
 11
21.87127817918774
 21
95.16874762664338
 31
0.0
  0
POINT
  5
198
330
1F
100
AcDbEntity
  8
レイヤー 1
 62
     7
370
    13
100
AcDbPoint
 10
21.82907575949342
 20
95.12637295217482
 30
0.0
  0
LINE
  5
199
330
1F
100
AcDbEntity
  8
レイヤー 1
 62
     7
370
    13
100
AcDbLine
 10
21.82907575949342
 20
95.12637295217482
 30
0.0
 11
21.78670108502486
 21
95.12637295217482
 31
0.0
  0
POINT
  5
19A
330
1F
100
AcDbEntity
  8
レイヤー 1
 62
     7
370
    13
100
AcDbPoint
 10
21.49025061851911
 20
86.4480051700562
 30
0.0
  0
LINE
  5
19B
330
1F
100
AcDbEntity
  8
レイヤー 1
 62
     7
370
    13
100
AcDbLine
 10
21.49025061851911
 20
86.4480051700562
 30
0.0
 11
21.49025061851911
 21
86.4903798445248
 31
0.0
  0
LINE
  5
19C
330
1F
100
AcDbEntity
  8
レイヤー 1
 62
     7
370
    13
100
AcDbLine
 10
21.49025061851911
 20
86.4903798445248
 30
0.0
 11
21.53262529298767
 21
86.4903798445248
 31
0.0
  0
LINE
  5
19D
330
1F
100
AcDbEntity
  8
レイヤー 1
 62
     7
370
    13
100
AcDbLine
 10
21.57499996745624
 20
86.40563049558764
 30
0.0
 11
21.44804819882479
 21
86.4480051700562
 31
0.0
  0
POINT
  5
19E
330
1F
100
AcDbEntity
  8
レイヤー 1
 62
     7
370
    13
100
AcDbPoint
 10
21.87127817918774
 20
95.16874762664338
 30
0.0
  0
LINE
  5
19F
330
1F
100
AcDbEntity
  8
レイヤー 1
 62
     7
370
    13
100
AcDbLine
 10
21.87127817918774
 20
95.16874762664338
 30
0.0
 11
21.82907575949342
 21
95.12637295217482
 31
0.0
  0
LINE
  5
1A0
330
1F
100
AcDbEntity
  8
レイヤー 1
 62
     7
370
    13
100
AcDbLine
 10
299.5780136783374
 20
37.12956849618789
 30
0.0
 11
299.620388352806
 21
37.12956849618789
 31
0.0
  0
LINE
  5
1A1
330
1F
100
AcDbEntity
  8
レイヤー 1
 62
     7
370
    13
100
AcDbLine
 10
299.5780136783374
 20
37.12956849618789
 30
0.0
 11
298.3505261569429
 21
37.34126961375651
 31
0.0
  0
LINE
  5
1A2
330
1F
100
AcDbEntity
  8
レイヤー 1
 62
     7
370
    13
100
AcDbLine
 10
297.8423745728686
 20
36.74871319029353
 30
0.0
 11
297.8423745728686
 21
36.87566495892497
 31
0.0
  0
LINE
  5
1A3
330
1F
100
AcDbEntity
  8
レイヤー 1
 62
     7
370
    13
100
AcDbLine
 10
297.8423745728686
 20
36.87566495892497
 30
0.0
 11
297.8423745728686
 21
36.96041430786212
 31
0.0
  0
LINE
  5
1A4
330
1F
100
AcDbEntity
  8
レイヤー 1
 62
     7
370
    13
100
AcDbLine
 10
297.8423745728686
 20
36.96041430786212
 30
0.0
 11
297.7999998984
 21
37.044991402025
 31
0.0
  0
LINE
  5
1A5
330
1F
100
AcDbEntity
  8
レイヤー 1
 62
     7
370
    13
100
AcDbLine
 10
297.7999998984
 20
37.044991402025
 30
0.0
 11
297.7576252239314
 21
37.08736607649359
 31
0.0
  0
LINE
  5
1A6
330
1F
100
AcDbEntity
  8
レイヤー 1
 62
     7
370
    13
100
AcDbLine
 10
297.7576252239314
 20
37.08736607649359
 30
0.0
 11
297.7152505494628
 21
37.17194317065648
 31
0.0
  0
LINE
  5
1A7
330
1F
100
AcDbEntity
  8
レイヤー 1
 62
     7
370
    13
100
AcDbLine
 10
297.7152505494628
 20
37.17194317065648
 30
0.0
 11
297.6728758749943
 21
37.17194317065648
 31
0.0
  0
LINE
  5
1A8
330
1F
100
AcDbEntity
  8
レイヤー 1
 62
     7
370
    13
100
AcDbLine
 10
297.6728758749943
 20
37.17194317065648
 30
0.0
 11
297.6305012005257
 21
37.21431784512504
 31
0.0
  0
LINE
  5
1A9
330
1F
100
AcDbEntity
  8
レイヤー 1
 62
     7
370
    13
100
AcDbLine
 10
297.7999998984
 20
35.90208097479339
 30
0.0
 11
297.8423745728686
 21
36.74871319029353
 31
0.0
  0
LINE
  5
1AA
330
1F
100
AcDbEntity
  8
レイヤー 1
 62
     7
370
    13
100
AcDbLine
 10
297.6305012005257
 20
35.43630406518761
 30
0.0
 11
297.6728758749943
 21
35.47867873965617
 31
0.0
  0
LINE
  5
1AB
330
1F
100
AcDbEntity
  8
レイヤー 1
 62
     7
370
    13
100
AcDbLine
 10
297.6728758749943
 20
35.47867873965617
 30
0.0
 11
297.7152505494628
 21
35.56325583381906
 31
0.0
  0
LINE
  5
1AC
330
1F
100
AcDbEntity
  8
レイヤー 1
 62
     7
370
    13
100
AcDbLine
 10
297.7152505494628
 20
35.56325583381906
 30
0.0
 11
297.7576252239314
 21
35.64800518275621
 31
0.0
  0
LINE
  5
1AD
330
1F
100
AcDbEntity
  8
レイヤー 1
 62
     7
370
    13
100
AcDbLine
 10
297.7576252239314
 20
35.64800518275621
 30
0.0
 11
297.7999998984
 21
35.73258227691909
 31
0.0
  0
LINE
  5
1AE
330
1F
100
AcDbEntity
  8
レイヤー 1
 62
     7
370
    13
100
AcDbLine
 10
297.7999998984
 20
35.73258227691909
 30
0.0
 11
297.7999998984
 21
35.81733162585624
 31
0.0
  0
LINE
  5
1AF
330
1F
100
AcDbEntity
  8
レイヤー 1
 62
     7
370
    13
100
AcDbLine
 10
297.7999998984
 20
35.81733162585624
 30
0.0
 11
297.7999998984
 21
35.90208097479339
 31
0.0
  0
LINE
  5
1B0
330
1F
100
AcDbEntity
  8
レイヤー 1
 62
     7
370
    13
100
AcDbLine
 10
288.3173745752498
 20
31.07601896428116
 30
0.0
 11
288.8255261593242
 21
30.99126961534401
 31
0.0
  0
LINE
  5
1B1
330
1F
100
AcDbEntity
  8
レイヤー 1
 62
     7
370
    13
100
AcDbLine
 10
288.8255261593242
 20
30.99126961534401
 30
0.0
 11
289.6296114455815
 21
30.94906719564969
 31
0.0
  0
LINE
  5
1B2
330
1F
100
AcDbEntity
  8
レイヤー 1
 62
     7
370
    13
100
AcDbLine
 10
289.6296114455815
 20
30.94906719564969
 30
0.0
 11
290.4340412413873
 21
30.99126961534401
 31
0.0
  0
LINE
  5
1B3
330
1F
100
AcDbEntity
  8
レイヤー 1
 62
     7
370
    13
100
AcDbLine
 10
290.4340412413873
 20
30.99126961534401
 30
0.0
 11
291.2384710371932
 21
31.11822138397545
 31
0.0
  0
LINE
  5
1B4
330
1F
100
AcDbEntity
  8
レイヤー 1
 62
     7
370
    13
100
AcDbLine
 10
291.2384710371932
 20
31.11822138397545
 30
0.0
 11
292.0849309979191
 21
31.32992250154405
 31
0.0
  0
LINE
  5
1B5
330
1F
100
AcDbEntity
  8
レイヤー 1
 62
     7
370
    13
100
AcDbLine
 10
292.0849309979191
 20
31.32992250154405
 30
0.0
 11
292.8893607937249
 21
31.66874764251838
 31
0.0
  0
LINE
  5
1B6
330
1F
100
AcDbEntity
  8
レイヤー 1
 62
     7
370
    13
100
AcDbLine
 10
292.8893607937249
 20
31.66874764251838
 30
0.0
 11
293.7361652639993
 21
32.09197762288133
 31
0.0
  0
LINE
  5
1B7
330
1F
100
AcDbEntity
  8
レイヤー 1
 62
     7
370
    13
100
AcDbLine
 10
293.7361652639993
 20
32.09197762288133
 30
0.0
 11
294.5402505502566
 21
32.5999569521814
 31
0.0
  0
LINE
  5
1B8
330
1F
100
AcDbEntity
  8
レイヤー 1
 62
     7
370
    13
100
AcDbLine
 10
294.5402505502566
 20
32.5999569521814
 30
0.0
 11
295.3446803460624
 21
33.19268563041865
 31
0.0
  0
LINE
  5
1B9
330
1F
100
AcDbEntity
  8
レイヤー 1
 62
     7
370
    13
100
AcDbLine
 10
295.3446803460624
 20
33.19268563041865
 30
0.0
 11
296.1067354673997
 21
33.82761672835019
 31
0.0
  0
LINE
  5
1BA
330
1F
100
AcDbEntity
  8
レイヤー 1
 62
     7
370
    13
100
AcDbLine
 10
296.1067354673997
 20
33.82761672835019
 30
0.0
 11
296.9111652632055
 21
34.58967184968745
 31
0.0
  0
LINE
  5
1BB
330
1F
100
AcDbEntity
  8
レイヤー 1
 62
     7
370
    13
100
AcDbLine
 10
296.9111652632055
 20
34.58967184968745
 30
0.0
 11
297.6305012005257
 21
35.43630406518761
 31
0.0
  0
LINE
  5
1BC
330
1F
100
AcDbEntity
  8
レイヤー 1
 62
     7
370
    13
100
AcDbLine
 10
299.2817354666059
 20
35.14002585345611
 30
0.0
 11
297.6305012005257
 21
35.43630406518761
 31
0.0
  0
LINE
  5
1BD
330
1F
100
AcDbEntity
  8
レイヤー 1
 62
     7
370
    13
100
AcDbLine
 10
290.1801377041244
 20
30.7373660780811
 30
0.0
 11
290.4764159158559
 21
30.69499140361251
 31
0.0
  0
LINE
  5
1BE
330
1F
100
AcDbEntity
  8
レイヤー 1
 62
     7
370
    13
100
AcDbLine
 10
290.4764159158559
 20
30.69499140361251
 30
0.0
 11
291.2805012021132
 21
30.65261672914394
 31
0.0
  0
LINE
  5
1BF
330
1F
100
AcDbEntity
  8
レイヤー 1
 62
     7
370
    13
100
AcDbLine
 10
291.2805012021132
 20
30.65261672914394
 30
0.0
 11
292.0849309979191
 21
30.69499140361251
 31
0.0
  0
LINE
  5
1C0
330
1F
100
AcDbEntity
  8
レイヤー 1
 62
     7
370
    13
100
AcDbLine
 10
292.0849309979191
 20
30.69499140361251
 30
0.0
 11
292.8893607937249
 21
30.82194317224398
 31
0.0
  0
LINE
  5
1C1
330
1F
100
AcDbEntity
  8
レイヤー 1
 62
     7
370
    13
100
AcDbLine
 10
292.8893607937249
 20
30.82194317224398
 30
0.0
 11
293.7361652639993
 21
31.07601896428116
 31
0.0
  0
LINE
  5
1C2
330
1F
100
AcDbEntity
  8
レイヤー 1
 62
     7
370
    13
100
AcDbLine
 10
293.7361652639993
 20
31.07601896428116
 30
0.0
 11
294.5402505502566
 21
31.37229717601264
 31
0.0
  0
LINE
  5
1C3
330
1F
100
AcDbEntity
  8
レイヤー 1
 62
     7
370
    13
100
AcDbLine
 10
294.5402505502566
 20
31.37229717601264
 30
0.0
 11
295.3446803460624
 21
31.79569941114983
 31
0.0
  0
LINE
  5
1C4
330
1F
100
AcDbEntity
  8
レイヤー 1
 62
     7
370
    13
100
AcDbLine
 10
295.3446803460624
 20
31.79569941114983
 30
0.0
 11
296.1491101418683
 21
32.30367874044993
 31
0.0
  0
LINE
  5
1C5
330
1F
100
AcDbEntity
  8
レイヤー 1
 62
     7
370
    13
100
AcDbLine
 10
296.1491101418683
 20
32.30367874044993
 30
0.0
 11
296.9531954281256
 21
32.89623516391291
 31
0.0
  0
LINE
  5
1C6
330
1F
100
AcDbEntity
  8
レイヤー 1
 62
     7
370
    13
100
AcDbLine
 10
296.9531954281256
 20
32.89623516391291
 30
0.0
 11
297.7576252239314
 21
33.53133851661872
 31
0.0
  0
LINE
  5
1C7
330
1F
100
AcDbEntity
  8
レイヤー 1
 62
     7
370
    13
100
AcDbLine
 10
297.7576252239314
 20
33.53133851661872
 30
0.0
 11
298.5196803452687
 21
34.2932213831817
 31
0.0
  0
LINE
  5
1C8
330
1F
100
AcDbEntity
  8
レイヤー 1
 62
     7
370
    13
100
AcDbLine
 10
298.5196803452687
 20
34.2932213831817
 30
0.0
 11
299.2817354666059
 21
35.14002585345611
 31
0.0
  0
LINE
  5
1C9
330
1F
100
AcDbEntity
  8
レイヤー 1
 62
     7
370
    13
100
AcDbLine
 10
299.4508896549317
 20
35.60563050828765
 30
0.0
 11
297.7999998984
 21
35.90208097479339
 31
0.0
  0
LINE
  5
1CA
330
1F
100
AcDbEntity
  8
レイヤー 1
 62
     7
370
    13
100
AcDbLine
 10
299.2817354666059
 20
35.14002585345611
 30
0.0
 11
299.3241101410745
 21
35.1824005279247
 31
0.0
  0
LINE
  5
1CB
330
1F
100
AcDbEntity
  8
レイヤー 1
 62
     7
370
    13
100
AcDbLine
 10
299.3241101410745
 20
35.1824005279247
 30
0.0
 11
299.3661403059946
 21
35.26697762208758
 31
0.0
  0
LINE
  5
1CC
330
1F
100
AcDbEntity
  8
レイヤー 1
 62
     7
370
    13
100
AcDbLine
 10
299.3661403059946
 20
35.26697762208758
 30
0.0
 11
299.4088594900117
 21
35.35155471625046
 31
0.0
  0
LINE
  5
1CD
330
1F
100
AcDbEntity
  8
レイヤー 1
 62
     7
370
    13
100
AcDbLine
 10
299.4088594900117
 20
35.35155471625046
 30
0.0
 11
299.4088594900117
 21
35.43630406518761
 31
0.0
  0
LINE
  5
1CE
330
1F
100
AcDbEntity
  8
レイヤー 1
 62
     7
370
    13
100
AcDbLine
 10
299.4088594900117
 20
35.43630406518761
 30
0.0
 11
299.4508896549317
 21
35.52105341412474
 31
0.0
  0
LINE
  5
1CF
330
1F
100
AcDbEntity
  8
レイヤー 1
 62
     7
370
    13
100
AcDbLine
 10
299.4508896549317
 20
35.52105341412474
 30
0.0
 11
299.4508896549317
 21
35.60563050828765
 31
0.0
  0
LINE
  5
1D0
330
1F
100
AcDbEntity
  8
レイヤー 1
 62
     7
370
    13
100
AcDbLine
 10
299.4508896549317
 20
36.45226272378778
 30
0.0
 11
297.8423745728686
 21
36.74871319029353
 31
0.0
  0
LINE
  5
1D1
330
1F
100
AcDbEntity
  8
レイヤー 1
 62
     7
370
    13
100
AcDbLine
 10
299.4508896549317
 20
35.60563050828765
 30
0.0
 11
299.4508896549317
 21
36.45226272378778
 31
0.0
  0
LINE
  5
1D2
330
1F
100
AcDbEntity
  8
レイヤー 1
 62
     7
370
    13
100
AcDbLine
 10
299.2817354666059
 20
36.83329028445641
 30
0.0
 11
299.2817354666059
 21
36.79091560998785
 31
0.0
  0
LINE
  5
1D3
330
1F
100
AcDbEntity
  8
レイヤー 1
 62
     7
370
    13
100
AcDbLine
 10
299.3241101410745
 20
35.1824005279247
 30
0.0
 11
299.1546114432002
 21
34.97069941035608
 31
0.0
  0
LINE
  5
1D4
330
1F
100
AcDbEntity
  8
レイヤー 1
 62
     7
370
    13
100
AcDbLine
 10
296.2338594908054
 20
37.46822138238795
 30
0.0
 11
296.2338594908054
 21
37.5529707313251
 31
0.0
  0
LINE
  5
1D5
330
1F
100
AcDbEntity
  8
レイヤー 1
 62
     7
370
    13
100
AcDbLine
 10
21.49025061851911
 20
84.75456848428166
 30
0.0
 11
21.49025061851911
 21
84.66999139011878
 31
0.0
  0
LINE
  5
1D6
330
1F
100
AcDbEntity
  8
レイヤー 1
 62
     7
370
    13
100
AcDbLine
 10
21.49025061851911
 20
84.66999139011878
 30
0.0
 11
21.53262529298767
 21
84.62761671565019
 31
0.0
  0
LINE
  5
1D7
330
1F
100
AcDbEntity
  8
レイヤー 1
 62
     7
370
    13
100
AcDbLine
 10
21.53262529298767
 20
84.62761671565019
 30
0.0
 11
21.53262529298767
 21
84.58541429595587
 31
0.0
  0
LINE
  5
1D8
330
1F
100
AcDbEntity
  8
レイヤー 1
 62
     7
370
    13
100
AcDbLine
 10
21.53262529298767
 20
84.58541429595587
 30
0.0
 11
21.53262529298767
 21
84.50066494701875
 31
0.0
  0
LINE
  5
1D9
330
1F
100
AcDbEntity
  8
レイヤー 1
 62
     7
370
    13
100
AcDbLine
 10
21.53262529298767
 20
84.50066494701875
 30
0.0
 11
21.57499996745624
 21
84.45829027255016
 31
0.0
  0
LINE
  5
1DA
330
1F
100
AcDbEntity
  8
レイヤー 1
 62
     7
370
    13
100
AcDbLine
 10
21.57499996745624
 20
84.45829027255016
 30
0.0
 11
21.61737464192483
 21
84.4159155980816
 31
0.0
  0
LINE
  5
1DB
330
1F
100
AcDbEntity
  8
レイヤー 1
 62
     7
370
    13
100
AcDbLine
 10
21.53262529298767
 20
85.60137295455607
 30
0.0
 11
21.49025061851911
 21
84.75456848428166
 31
0.0
  0
LINE
  5
1DC
330
1F
100
AcDbEntity
  8
レイヤー 1
 62
     7
370
    13
100
AcDbLine
 10
21.78670108502486
 20
86.06697760938758
 30
0.0
 11
21.74432641055627
 21
86.02460293491902
 31
0.0
  0
LINE
  5
1DD
330
1F
100
AcDbEntity
  8
レイヤー 1
 62
     7
370
    13
100
AcDbLine
 10
21.74432641055627
 20
86.02460293491902
 30
0.0
 11
21.70195173608771
 21
85.9824005152247
 31
0.0
  0
LINE
  5
1DE
330
1F
100
AcDbEntity
  8
レイヤー 1
 62
     7
370
    13
100
AcDbLine
 10
21.70195173608771
 20
85.9824005152247
 30
0.0
 11
21.65974931639339
 21
85.89765116628755
 31
0.0
  0
LINE
  5
1DF
330
1F
100
AcDbEntity
  8
レイヤー 1
 62
     7
370
    13
100
AcDbLine
 10
21.65974931639339
 20
85.89765116628755
 30
0.0
 11
21.61737464192483
 21
85.85527649181898
 31
0.0
  0
LINE
  5
1E0
330
1F
100
AcDbEntity
  8
レイヤー 1
 62
     7
370
    13
100
AcDbLine
 10
21.61737464192483
 20
85.85527649181898
 30
0.0
 11
21.57499996745624
 21
85.8129018173504
 31
0.0
  0
LINE
  5
1E1
330
1F
100
AcDbEntity
  8
レイヤー 1
 62
     7
370
    13
100
AcDbLine
 10
21.57499996745624
 20
85.8129018173504
 30
0.0
 11
21.53262529298767
 21
85.72832472318751
 31
0.0
  0
LINE
  5
1E2
330
1F
100
AcDbEntity
  8
レイヤー 1
 62
     7
370
    13
100
AcDbLine
 10
21.53262529298767
 20
85.72832472318751
 30
0.0
 11
21.53262529298767
 21
85.64374762902463
 31
0.0
  0
LINE
  5
1E3
330
1F
100
AcDbEntity
  8
レイヤー 1
 62
     7
370
    13
100
AcDbLine
 10
21.53262529298767
 20
85.64374762902463
 30
0.0
 11
21.53262529298767
 21
85.60137295455607
 31
0.0
  0
LINE
  5
1E4
330
1F
100
AcDbEntity
  8
レイヤー 1
 62
     7
370
    13
100
AcDbLine
 10
33.25904130568107
 20
89.24197760859383
 30
0.0
 11
21.78670108502486
 21
86.06697760938758
 31
0.0
  0
LINE
  5
1E5
330
1F
100
AcDbEntity
  8
レイヤー 1
 62
     7
370
    13
100
AcDbLine
 10
33.51294484294398
 20
88.90332472239376
 30
0.0
 11
33.47074242324966
 21
88.98790181655664
 31
0.0
  0
LINE
  5
1E6
330
1F
100
AcDbEntity
  8
レイヤー 1
 62
     7
370
    13
100
AcDbLine
 10
33.47074242324966
 20
88.98790181655664
 30
0.0
 11
33.47074242324966
 21
89.0726511654938
 31
0.0
  0
LINE
  5
1E7
330
1F
100
AcDbEntity
  8
レイヤー 1
 62
     7
370
    13
100
AcDbLine
 10
33.47074242324966
 20
89.0726511654938
 30
0.0
 11
33.47074242324966
 21
89.11502583996236
 31
0.0
  0
LINE
  5
1E8
330
1F
100
AcDbEntity
  8
レイヤー 1
 62
     7
370
    13
100
AcDbLine
 10
33.47074242324966
 20
89.11502583996236
 30
0.0
 11
33.4283677487811
 21
89.19960293412527
 31
0.0
  0
LINE
  5
1E9
330
1F
100
AcDbEntity
  8
レイヤー 1
 62
     7
370
    13
100
AcDbLine
 10
33.4283677487811
 20
89.19960293412527
 30
0.0
 11
33.38599307431254
 21
89.24197760859383
 31
0.0
  0
LINE
  5
1EA
330
1F
100
AcDbEntity
  8
レイヤー 1
 62
     7
370
    13
100
AcDbLine
 10
33.38599307431254
 20
89.24197760859383
 30
0.0
 11
33.34361839984395
 21
89.24197760859383
 31
0.0
  0
LINE
  5
1EB
330
1F
100
AcDbEntity
  8
レイヤー 1
 62
     7
370
    13
100
AcDbLine
 10
33.34361839984395
 20
89.24197760859383
 30
0.0
 11
33.30141598014966
 21
89.24197760859383
 31
0.0
  0
LINE
  5
1EC
330
1F
100
AcDbEntity
  8
レイヤー 1
 62
     7
370
    13
100
AcDbLine
 10
33.30141598014966
 20
89.24197760859383
 30
0.0
 11
33.25904130568107
 21
89.24197760859383
 31
0.0
  0
LINE
  5
1ED
330
1F
100
AcDbEntity
  8
レイヤー 1
 62
     7
370
    13
100
AcDbLine
 10
33.47074242324966
 20
88.05669250689363
 30
0.0
 11
33.51294484294398
 21
88.90332472239376
 31
0.0
  0
LINE
  5
1EE
330
1F
100
AcDbEntity
  8
レイヤー 1
 62
     7
370
    13
100
AcDbLine
 10
33.34361839984395
 20
87.675664946225
 30
0.0
 11
33.38599307431254
 21
87.76041429516212
 31
0.0
  0
LINE
  5
1EF
330
1F
100
AcDbEntity
  8
レイヤー 1
 62
     7
370
    13
100
AcDbLine
 10
33.38599307431254
 20
87.76041429516212
 30
0.0
 11
33.4283677487811
 21
87.84499138932503
 31
0.0
  0
LINE
  5
1F0
330
1F
100
AcDbEntity
  8
レイヤー 1
 62
     7
370
    13
100
AcDbLine
 10
33.4283677487811
 20
87.84499138932503
 30
0.0
 11
33.4283677487811
 21
87.92956848348791
 31
0.0
  0
LINE
  5
1F1
330
1F
100
AcDbEntity
  8
レイヤー 1
 62
     7
370
    13
100
AcDbLine
 10
33.4283677487811
 20
87.92956848348791
 30
0.0
 11
33.47074242324966
 21
88.01431783242504
 31
0.0
  0
LINE
  5
1F2
330
1F
100
AcDbEntity
  8
レイヤー 1
 62
     7
370
    13
100
AcDbLine
 10
33.47074242324966
 20
88.01431783242504
 30
0.0
 11
33.47074242324966
 21
88.05669250689363
 31
0.0
  0
LINE
  5
1F3
330
1F
100
AcDbEntity
  8
レイヤー 1
 62
     7
370
    13
100
AcDbLine
 10
23.77641598253091
 20
83.44233161394999
 30
0.0
 11
23.8186184022252
 21
83.44233161394999
 31
0.0
  0
LINE
  5
1F4
330
1F
100
AcDbEntity
  8
レイヤー 1
 62
     7
370
    13
100
AcDbLine
 10
23.8186184022252
 20
83.44233161394999
 30
0.0
 11
24.58067352356248
 21
83.27300517084996
 31
0.0
  0
LINE
  5
1F5
330
1F
100
AcDbEntity
  8
レイヤー 1
 62
     7
370
    13
100
AcDbLine
 10
24.58067352356248
 20
83.27300517084996
 30
0.0
 11
25.38493106459406
 21
83.2306304963814
 31
0.0
  0
LINE
  5
1F6
330
1F
100
AcDbEntity
  8
レイヤー 1
 62
     7
370
    13
100
AcDbLine
 10
25.38493106459406
 20
83.2306304963814
 30
0.0
 11
26.18936086039987
 21
83.27300517084996
 31
0.0
  0
LINE
  5
1F7
330
1F
100
AcDbEntity
  8
レイヤー 1
 62
     7
370
    13
100
AcDbLine
 10
26.18936086039987
 20
83.27300517084996
 30
0.0
 11
26.99361840143145
 21
83.39995693948143
 31
0.0
  0
LINE
  5
1F8
330
1F
100
AcDbEntity
  8
レイヤー 1
 62
     7
370
    13
100
AcDbLine
 10
26.99361840143145
 20
83.39995693948143
 30
0.0
 11
27.79804819723729
 21
83.65403273151858
 31
0.0
  0
LINE
  5
1F9
330
1F
100
AcDbEntity
  8
レイヤー 1
 62
     7
370
    13
100
AcDbLine
 10
27.79804819723729
 20
83.65403273151858
 30
0.0
 11
28.60230573826887
 21
83.95031094325009
 31
0.0
  0
LINE
  5
1FA
330
1F
100
AcDbEntity
  8
レイヤー 1
 62
     7
370
    13
100
AcDbLine
 10
28.60230573826887
 20
83.95031094325009
 30
0.0
 11
29.40673553407471
 21
84.37371317838728
 31
0.0
  0
LINE
  5
1FB
330
1F
100
AcDbEntity
  8
レイヤー 1
 62
     7
370
    13
100
AcDbLine
 10
29.40673553407471
 20
84.37371317838728
 30
0.0
 11
30.25336774957485
 21
84.88169250768738
 31
0.0
  0
LINE
  5
1FC
330
1F
100
AcDbEntity
  8
レイヤー 1
 62
     7
370
    13
100
AcDbLine
 10
30.25336774957485
 20
84.88169250768738
 30
0.0
 11
31.01525061613786
 21
85.43204651145604
 31
0.0
  0
LINE
  5
1FD
330
1F
100
AcDbEntity
  8
レイヤー 1
 62
     7
370
    13
100
AcDbLine
 10
31.01525061613786
 20
85.43204651145604
 30
0.0
 11
31.81968041194368
 21
86.10935228385614
 31
0.0
  0
LINE
  5
1FE
330
1F
100
AcDbEntity
  8
レイヤー 1
 62
     7
370
    13
100
AcDbLine
 10
31.81968041194368
 20
86.10935228385614
 30
0.0
 11
32.58173553328096
 21
86.87123515041915
 31
0.0
  0
LINE
  5
1FF
330
1F
100
AcDbEntity
  8
レイヤー 1
 62
     7
370
    13
100
AcDbLine
 10
32.58173553328096
 20
86.87123515041915
 30
0.0
 11
33.34361839984395
 21
87.675664946225
 31
0.0
  0
POINT
  5
200
330
1F
100
AcDbEntity
  8
レイヤー 1
 62
     7
370
    13
100
AcDbPoint
 10
33.34361839984395
 20
87.675664946225
 30
0.0
  0
LINE
  5
201
330
1F
100
AcDbEntity
  8
レイヤー 1
 62
     7
370
    13
100
AcDbLine
 10
33.34361839984395
 20
87.675664946225
 30
0.0
 11
33.38599307431254
 21
87.63329027175641
 31
0.0
  0
LINE
  5
202
330
1F
100
AcDbEntity
  8
レイヤー 1
 62
     7
370
    13
100
AcDbLine
 10
33.38599307431254
 20
87.63329027175641
 30
0.0
 11
33.4283677487811
 21
87.63329027175641
 31
0.0
  0
LINE
  5
203
330
1F
100
AcDbEntity
  8
レイヤー 1
 62
     7
370
    13
100
AcDbLine
 10
33.4283677487811
 20
87.63329027175641
 30
0.0
 11
32.66631262744384
 21
86.78665805625627
 31
0.0
  0
LINE
  5
204
330
1F
100
AcDbEntity
  8
レイヤー 1
 62
     7
370
    13
100
AcDbLine
 10
32.66631262744384
 20
86.78665805625627
 30
0.0
 11
31.90425750610656
 21
86.02460293491902
 31
0.0
  0
LINE
  5
205
330
1F
100
AcDbEntity
  8
レイヤー 1
 62
     7
370
    13
100
AcDbLine
 10
31.90425750610656
 20
86.02460293491902
 30
0.0
 11
31.09999996507499
 21
85.38967183698745
 31
0.0
  0
LINE
  5
206
330
1F
100
AcDbEntity
  8
レイヤー 1
 62
     7
370
    13
100
AcDbLine
 10
31.09999996507499
 20
85.38967183698745
 30
0.0
 11
30.29574242404341
 21
84.79694315875022
 31
0.0
  0
LINE
  5
207
330
1F
100
AcDbEntity
  8
レイヤー 1
 62
     7
370
    13
100
AcDbLine
 10
30.29574242404341
 20
84.79694315875022
 30
0.0
 11
29.49131262823759
 21
84.28896382945013
 31
0.0
  0
LINE
  5
208
330
1F
100
AcDbEntity
  8
レイヤー 1
 62
     7
370
    13
100
AcDbLine
 10
29.49131262823759
 20
84.28896382945013
 30
0.0
 11
28.68705508720602
 21
83.8657338490872
 31
0.0
  0
LINE
  5
209
330
1F
100
AcDbEntity
  8
レイヤー 1
 62
     7
370
    13
100
AcDbLine
 10
28.68705508720602
 20
83.8657338490872
 30
0.0
 11
27.84025061693161
 21
83.56928338258143
 31
0.0
  0
LINE
  5
20A
330
1F
100
AcDbEntity
  8
レイヤー 1
 62
     7
370
    13
100
AcDbLine
 10
27.84025061693161
 20
83.56928338258143
 30
0.0
 11
27.03599307590004
 21
83.31537984531852
 31
0.0
  0
LINE
  5
20B
330
1F
100
AcDbEntity
  8
レイヤー 1
 62
     7
370
    13
100
AcDbLine
 10
27.03599307590004
 20
83.31537984531852
 30
0.0
 11
26.23173553486846
 21
83.1882558219128
 31
0.0
  0
LINE
  5
20C
330
1F
100
AcDbEntity
  8
レイヤー 1
 62
     7
370
    13
100
AcDbLine
 10
26.23173553486846
 20
83.1882558219128
 30
0.0
 11
25.42730573906262
 21
83.14605340221851
 31
0.0
  0
LINE
  5
20D
330
1F
100
AcDbEntity
  8
レイヤー 1
 62
     7
370
    13
100
AcDbLine
 10
25.42730573906262
 20
83.14605340221851
 30
0.0
 11
24.62304819803104
 21
83.1882558219128
 31
0.0
  0
LINE
  5
20E
330
1F
100
AcDbEntity
  8
レイヤー 1
 62
     7
370
    13
100
AcDbLine
 10
24.62304819803104
 20
83.1882558219128
 30
0.0
 11
23.86099307669379
 21
83.35758226501284
 31
0.0
  0
LINE
  5
20F
330
1F
100
AcDbEntity
  8
レイヤー 1
 62
     7
370
    13
100
AcDbLine
 10
23.86099307669379
 20
83.35758226501284
 30
0.0
 11
23.0989379553565
 21
83.56928338258143
 31
0.0
  0
LINE
  5
210
330
1F
100
AcDbEntity
  8
レイヤー 1
 62
     7
370
    13
100
AcDbLine
 10
23.0989379553565
 20
83.56928338258143
 30
0.0
 11
22.37925750848781
 21
83.9079362687815
 31
0.0
  0
LINE
  5
211
330
1F
100
AcDbEntity
  8
レイヤー 1
 62
     7
370
    13
100
AcDbLine
 10
22.37925750848781
 20
83.9079362687815
 30
0.0
 11
21.65974931639339
 21
84.33133850391872
 31
0.0
  0
LINE
  5
212
330
1F
100
AcDbEntity
  8
レイヤー 1
 62
     7
370
    13
100
AcDbLine
 10
35.07925750531281
 20
87.25226271108778
 30
0.0
 11
34.31737463874983
 21
86.4480051700562
 31
0.0
  0
LINE
  5
213
330
1F
100
AcDbEntity
  8
レイヤー 1
 62
     7
370
    13
100
AcDbLine
 10
34.31737463874983
 20
86.4480051700562
 30
0.0
 11
33.55531951741257
 21
85.68595004871895
 31
0.0
  0
LINE
  5
214
330
1F
100
AcDbEntity
  8
レイヤー 1
 62
     7
370
    13
100
AcDbLine
 10
33.55531951741257
 20
85.68595004871895
 30
0.0
 11
32.751061976381
 21
85.00864427631882
 31
0.0
  0
LINE
  5
215
330
1F
100
AcDbEntity
  8
レイヤー 1
 62
     7
370
    13
100
AcDbLine
 10
32.751061976381
 20
85.00864427631882
 30
0.0
 11
31.94663218057515
 21
84.4159155980816
 31
0.0
  0
LINE
  5
216
330
1F
100
AcDbEntity
  8
レイヤー 1
 62
     7
370
    13
100
AcDbLine
 10
31.94663218057515
 20
84.4159155980816
 30
0.0
 11
31.14237463954358
 21
83.9079362687815
 31
0.0
  0
LINE
  5
217
330
1F
100
AcDbEntity
  8
レイヤー 1
 62
     7
370
    13
100
AcDbLine
 10
31.14237463954358
 20
83.9079362687815
 30
0.0
 11
30.33794484373773
 21
83.52708096288714
 31
0.0
  0
LINE
  5
218
330
1F
100
AcDbEntity
  8
レイヤー 1
 62
     7
370
    13
100
AcDbLine
 10
30.33794484373773
 20
83.52708096288714
 30
0.0
 11
29.49131262823759
 21
83.1882558219128
 31
0.0
  0
LINE
  5
219
330
1F
100
AcDbEntity
  8
レイヤー 1
 62
     7
370
    13
100
AcDbLine
 10
29.49131262823759
 20
83.1882558219128
 30
0.0
 11
28.68705508720602
 21
82.97655470434421
 31
0.0
  0
LINE
  5
21A
330
1F
100
AcDbEntity
  8
レイヤー 1
 62
     7
370
    13
100
AcDbLine
 10
28.68705508720602
 20
82.97655470434421
 30
0.0
 11
27.88262529140017
 21
82.80740051601845
 31
0.0
  0
LINE
  5
21B
330
1F
100
AcDbEntity
  8
レイヤー 1
 62
     7
370
    13
100
AcDbLine
 10
27.88262529140017
 20
82.80740051601845
 30
0.0
 11
27.0783677503686
 21
82.80740051601845
 31
0.0
  0
LINE
  5
21C
330
1F
100
AcDbEntity
  8
レイヤー 1
 62
     7
370
    13
100
AcDbLine
 10
27.0783677503686
 20
82.80740051601845
 30
0.0
 11
26.27393795456275
 21
82.84960293571277
 31
0.0
  0
LINE
  5
21D
330
1F
100
AcDbEntity
  8
レイヤー 1
 62
     7
370
    13
100
AcDbLine
 10
26.27393795456275
 20
82.84960293571277
 30
0.0
 11
25.6813815310998
 21
82.93435228464989
 31
0.0
  0
LINE
  5
21E
330
1F
100
AcDbEntity
  8
レイヤー 1
 62
     7
370
    13
100
AcDbLine
 10
33.4283677487811
 20
87.63329027175641
 30
0.0
 11
35.07925750531281
 21
87.25226271108778
 31
0.0
  0
POINT
  5
21F
330
1F
100
AcDbEntity
  8
レイヤー 1
 62
     7
370
    13
100
AcDbPoint
 10
33.55531951741257
 20
88.09906718136219
 30
0.0
  0
LINE
  5
220
330
1F
100
AcDbEntity
  8
レイヤー 1
 62
     7
370
    13
100
AcDbLine
 10
33.55531951741257
 20
88.09906718136219
 30
0.0
 11
33.51294484294398
 21
88.09906718136219
 31
0.0
  0
LINE
  5
221
330
1F
100
AcDbEntity
  8
レイヤー 1
 62
     7
370
    13
100
AcDbLine
 10
33.51294484294398
 20
88.09906718136219
 30
0.0
 11
33.47074242324966
 21
88.05669250689363
 31
0.0
  0
LINE
  5
222
330
1F
100
AcDbEntity
  8
レイヤー 1
 62
     7
370
    13
100
AcDbLine
 10
33.4283677487811
 20
87.63329027175641
 30
0.0
 11
33.47074242324966
 21
87.675664946225
 31
0.0
  0
LINE
  5
223
330
1F
100
AcDbEntity
  8
レイヤー 1
 62
     7
370
    13
100
AcDbLine
 10
33.47074242324966
 20
87.675664946225
 30
0.0
 11
33.51294484294398
 21
87.76041429516212
 31
0.0
  0
LINE
  5
224
330
1F
100
AcDbEntity
  8
レイヤー 1
 62
     7
370
    13
100
AcDbLine
 10
33.51294484294398
 20
87.76041429516212
 30
0.0
 11
33.51294484294398
 21
87.84499138932503
 31
0.0
  0
LINE
  5
225
330
1F
100
AcDbEntity
  8
レイヤー 1
 62
     7
370
    13
100
AcDbLine
 10
33.51294484294398
 20
87.84499138932503
 30
0.0
 11
33.55531951741257
 21
87.92956848348791
 31
0.0
  0
LINE
  5
226
330
1F
100
AcDbEntity
  8
レイヤー 1
 62
     7
370
    13
100
AcDbLine
 10
33.55531951741257
 20
87.92956848348791
 30
0.0
 11
33.55531951741257
 21
88.01431783242504
 31
0.0
  0
LINE
  5
227
330
1F
100
AcDbEntity
  8
レイヤー 1
 62
     7
370
    13
100
AcDbLine
 10
33.55531951741257
 20
88.01431783242504
 30
0.0
 11
33.55531951741257
 21
88.09906718136219
 31
0.0
  0
LINE
  5
228
330
1F
100
AcDbEntity
  8
レイヤー 1
 62
     7
370
    13
100
AcDbLine
 10
35.07925750531281
 20
87.25226271108778
 30
0.0
 11
35.1216321797814
 21
87.33701206002493
 31
0.0
  0
LINE
  5
229
330
1F
100
AcDbEntity
  8
レイヤー 1
 62
     7
370
    13
100
AcDbLine
 10
35.1216321797814
 20
87.33701206002493
 30
0.0
 11
35.16400685424996
 21
87.42158915418781
 31
0.0
  0
LINE
  5
22A
330
1F
100
AcDbEntity
  8
レイヤー 1
 62
     7
370
    13
100
AcDbLine
 10
35.16400685424996
 20
87.42158915418781
 30
0.0
 11
35.20638152871855
 21
87.50633850312497
 31
0.0
  0
LINE
  5
22B
330
1F
100
AcDbEntity
  8
レイヤー 1
 62
     7
370
    13
100
AcDbLine
 10
35.20638152871855
 20
87.50633850312497
 30
0.0
 11
35.20638152871855
 21
87.59091559728785
 31
0.0
  0
LINE
  5
22C
330
1F
100
AcDbEntity
  8
レイヤー 1
 62
     7
370
    13
100
AcDbLine
 10
35.20638152871855
 20
87.59091559728785
 30
0.0
 11
35.24858394841284
 21
87.675664946225
 31
0.0
  0
LINE
  5
22D
330
1F
100
AcDbEntity
  8
レイヤー 1
 62
     7
370
    13
100
AcDbLine
 10
35.24858394841284
 20
87.675664946225
 30
0.0
 11
35.24858394841284
 21
87.76041429516212
 31
0.0
  0
LINE
  5
22E
330
1F
100
AcDbEntity
  8
レイヤー 1
 62
     7
370
    13
100
AcDbLine
 10
33.55531951741257
 20
88.09906718136219
 30
0.0
 11
35.24858394841284
 21
87.76041429516212
 31
0.0
  0
LINE
  5
22F
330
1F
100
AcDbEntity
  8
レイヤー 1
 62
     7
370
    13
100
AcDbLine
 10
33.59769419188113
 20
88.90332472239376
 30
0.0
 11
33.55531951741257
 21
88.09906718136219
 31
0.0
  0
LINE
  5
230
330
1F
100
AcDbEntity
  8
レイヤー 1
 62
     7
370
    13
100
AcDbLine
 10
33.59769419188113
 20
88.90332472239376
 30
0.0
 11
33.55531951741257
 21
88.94569939686235
 31
0.0
  0
LINE
  5
231
330
1F
100
AcDbEntity
  8
レイヤー 1
 62
     7
370
    13
100
AcDbLine
 10
33.55531951741257
 20
88.94569939686235
 30
0.0
 11
33.51294484294398
 21
88.94569939686235
 31
0.0
  0
LINE
  5
232
330
1F
100
AcDbEntity
  8
レイヤー 1
 62
     7
370
    13
100
AcDbLine
 10
33.51294484294398
 20
88.94569939686235
 30
0.0
 11
33.51294484294398
 21
88.90332472239376
 31
0.0
  0
LINE
  5
233
330
1F
100
AcDbEntity
  8
レイヤー 1
 62
     7
370
    13
100
AcDbLine
 10
35.24858394841284
 20
88.60704651066229
 30
0.0
 11
35.24858394841284
 21
87.76041429516212
 31
0.0
  0
LINE
  5
234
330
1F
100
AcDbEntity
  8
レイヤー 1
 62
     7
370
    13
100
AcDbLine
 10
33.59769419188113
 20
88.90332472239376
 30
0.0
 11
35.24858394841284
 21
88.60704651066229
 31
0.0
  0
LINE
  5
235
330
1F
100
AcDbEntity
  8
レイヤー 1
 62
     7
370
    13
100
AcDbLine
 10
33.34361839984395
 20
89.32655470275671
 30
0.0
 11
33.38599307431254
 21
89.32655470275671
 31
0.0
  0
LINE
  5
236
330
1F
100
AcDbEntity
  8
レイヤー 1
 62
     7
370
    13
100
AcDbLine
 10
33.38599307431254
 20
89.32655470275671
 30
0.0
 11
33.4283677487811
 21
89.32655470275671
 31
0.0
  0
LINE
  5
237
330
1F
100
AcDbEntity
  8
レイヤー 1
 62
     7
370
    13
100
AcDbLine
 10
33.34361839984395
 20
89.32655470275671
 30
0.0
 11
33.30141598014966
 21
89.32655470275671
 31
0.0
  0
LINE
  5
238
330
1F
100
AcDbEntity
  8
レイヤー 1
 62
     7
370
    13
100
AcDbLine
 10
35.03705508561852
 20
89.03027649102523
 30
0.0
 11
35.07925750531281
 21
89.03027649102523
 31
0.0
  0
LINE
  5
239
330
1F
100
AcDbEntity
  8
レイヤー 1
 62
     7
370
    13
100
AcDbLine
 10
35.07925750531281
 20
89.03027649102523
 30
0.0
 11
35.16400685424996
 21
88.98790181655664
 31
0.0
  0
LINE
  5
23A
330
1F
100
AcDbEntity
  8
レイヤー 1
 62
     7
370
    13
100
AcDbLine
 10
35.16400685424996
 20
88.98790181655664
 30
0.0
 11
35.20638152871855
 21
88.94569939686235
 31
0.0
  0
LINE
  5
23B
330
1F
100
AcDbEntity
  8
レイヤー 1
 62
     7
370
    13
100
AcDbLine
 10
35.20638152871855
 20
88.94569939686235
 30
0.0
 11
35.20638152871855
 21
88.8609500479252
 31
0.0
  0
LINE
  5
23C
330
1F
100
AcDbEntity
  8
レイヤー 1
 62
     7
370
    13
100
AcDbLine
 10
35.20638152871855
 20
88.8609500479252
 30
0.0
 11
35.24858394841284
 21
88.77637295376232
 31
0.0
  0
LINE
  5
23D
330
1F
100
AcDbEntity
  8
レイヤー 1
 62
     7
370
    13
100
AcDbLine
 10
35.24858394841284
 20
88.77637295376232
 30
0.0
 11
35.24858394841284
 21
88.69162360482517
 31
0.0
  0
LINE
  5
23E
330
1F
100
AcDbEntity
  8
レイヤー 1
 62
     7
370
    13
100
AcDbLine
 10
35.24858394841284
 20
88.69162360482517
 30
0.0
 11
35.24858394841284
 21
88.60704651066229
 31
0.0
  0
LINE
  5
23F
330
1F
100
AcDbEntity
  8
レイヤー 1
 62
     7
370
    13
100
AcDbLine
 10
35.37570797181858
 20
89.0726511654938
 30
0.0
 11
35.37570797181858
 21
88.98790181655664
 31
0.0
  0
LINE
  5
240
330
1F
100
AcDbEntity
  8
レイヤー 1
 62
     7
370
    13
100
AcDbLine
 10
26.52801374659994
 20
90.7659155964941
 30
0.0
 11
26.48563907213138
 21
90.7659155964941
 31
0.0
  0
LINE
  5
241
330
1F
100
AcDbEntity
  8
レイヤー 1
 62
     7
370
    13
100
AcDbLine
 10
33.25904130568107
 20
89.70758226342534
 30
0.0
 11
33.25904130568107
 21
89.66537984373105
 31
0.0
  0
POINT
  5
242
330
1F
100
AcDbEntity
  8
レイヤー 1
 62
     7
370
    13
100
AcDbPoint
 10
21.49025061851911
 20
84.75456848428166
 30
0.0
  0
LINE
  5
243
330
1F
100
AcDbEntity
  8
レイヤー 1
 62
     7
370
    13
100
AcDbLine
 10
21.49025061851911
 20
84.75456848428166
 30
0.0
 11
21.49025061851911
 21
84.71236606458734
 31
0.0
  0
POINT
  5
244
330
1F
100
AcDbEntity
  8
レイヤー 1
 62
     7
370
    13
100
AcDbPoint
 10
21.53262529298767
 20
85.60137295455607
 30
0.0
  0
LINE
  5
245
330
1F
100
AcDbEntity
  8
レイヤー 1
 62
     7
370
    13
100
AcDbLine
 10
21.53262529298767
 20
85.60137295455607
 30
0.0
 11
21.53262529298767
 21
85.55899828008748
 31
0.0
  0
LINE
  5
246
330
1F
100
AcDbEntity
  8
レイヤー 1
 62
     7
370
    13
100
AcDbLine
 10
35.24858394841284
 20
88.60704651066229
 30
0.0
 11
35.24858394841284
 21
88.69162360482517
 31
0.0
  0
LINE
  5
247
330
1F
100
AcDbEntity
  8
レイヤー 1
 62
     7
370
    13
100
AcDbLine
 10
35.24858394841284
 20
88.69162360482517
 30
0.0
 11
35.24858394841284
 21
88.77637295376232
 31
0.0
  0
LINE
  5
248
330
1F
100
AcDbEntity
  8
レイヤー 1
 62
     7
370
    13
100
AcDbLine
 10
35.24858394841284
 20
88.77637295376232
 30
0.0
 11
35.20638152871855
 21
88.8609500479252
 31
0.0
  0
LINE
  5
249
330
1F
100
AcDbEntity
  8
レイヤー 1
 62
     7
370
    13
100
AcDbLine
 10
35.20638152871855
 20
88.8609500479252
 30
0.0
 11
35.20638152871855
 21
88.94569939686235
 31
0.0
  0
LINE
  5
24A
330
1F
100
AcDbEntity
  8
レイヤー 1
 62
     7
370
    13
100
AcDbLine
 10
35.20638152871855
 20
88.94569939686235
 30
0.0
 11
35.16400685424996
 21
88.98790181655664
 31
0.0
  0
LINE
  5
24B
330
1F
100
AcDbEntity
  8
レイヤー 1
 62
     7
370
    13
100
AcDbLine
 10
35.16400685424996
 20
88.98790181655664
 30
0.0
 11
35.07925750531281
 21
89.03027649102523
 31
0.0
  0
LINE
  5
24C
330
1F
100
AcDbEntity
  8
レイヤー 1
 62
     7
370
    13
100
AcDbLine
 10
35.24858394841284
 20
87.76041429516212
 30
0.0
 11
35.24858394841284
 21
88.60704651066229
 31
0.0
  0
LINE
  5
24D
330
1F
100
AcDbEntity
  8
レイヤー 1
 62
     7
370
    13
100
AcDbLine
 10
35.07925750531281
 20
87.25226271108778
 30
0.0
 11
35.1216321797814
 21
87.33701206002493
 31
0.0
  0
LINE
  5
24E
330
1F
100
AcDbEntity
  8
レイヤー 1
 62
     7
370
    13
100
AcDbLine
 10
35.1216321797814
 20
87.33701206002493
 30
0.0
 11
35.16400685424996
 21
87.42158915418781
 31
0.0
  0
LINE
  5
24F
330
1F
100
AcDbEntity
  8
レイヤー 1
 62
     7
370
    13
100
AcDbLine
 10
35.16400685424996
 20
87.42158915418781
 30
0.0
 11
35.20638152871855
 21
87.50633850312497
 31
0.0
  0
LINE
  5
250
330
1F
100
AcDbEntity
  8
レイヤー 1
 62
     7
370
    13
100
AcDbLine
 10
35.20638152871855
 20
87.50633850312497
 30
0.0
 11
35.20638152871855
 21
87.59091559728785
 31
0.0
  0
LINE
  5
251
330
1F
100
AcDbEntity
  8
レイヤー 1
 62
     7
370
    13
100
AcDbLine
 10
35.20638152871855
 20
87.59091559728785
 30
0.0
 11
35.24858394841284
 21
87.675664946225
 31
0.0
  0
LINE
  5
252
330
1F
100
AcDbEntity
  8
レイヤー 1
 62
     7
370
    13
100
AcDbLine
 10
35.24858394841284
 20
87.675664946225
 30
0.0
 11
35.24858394841284
 21
87.76041429516212
 31
0.0
  0
LINE
  5
253
330
1F
100
AcDbEntity
  8
レイヤー 1
 62
     7
370
    13
100
AcDbLine
 10
35.07925750531281
 20
87.25226271108778
 30
0.0
 11
34.31737463874983
 21
86.4480051700562
 31
0.0
  0
LINE
  5
254
330
1F
100
AcDbEntity
  8
レイヤー 1
 62
     7
370
    13
100
AcDbLine
 10
34.31737463874983
 20
86.4480051700562
 30
0.0
 11
33.55531951741257
 21
85.68595004871895
 31
0.0
  0
LINE
  5
255
330
1F
100
AcDbEntity
  8
レイヤー 1
 62
     7
370
    13
100
AcDbLine
 10
33.55531951741257
 20
85.68595004871895
 30
0.0
 11
32.751061976381
 21
85.00864427631882
 31
0.0
  0
LINE
  5
256
330
1F
100
AcDbEntity
  8
レイヤー 1
 62
     7
370
    13
100
AcDbLine
 10
32.751061976381
 20
85.00864427631882
 30
0.0
 11
31.94663218057515
 21
84.4159155980816
 31
0.0
  0
LINE
  5
257
330
1F
100
AcDbEntity
  8
レイヤー 1
 62
     7
370
    13
100
AcDbLine
 10
31.94663218057515
 20
84.4159155980816
 30
0.0
 11
31.14237463954358
 21
83.9079362687815
 31
0.0
  0
LINE
  5
258
330
1F
100
AcDbEntity
  8
レイヤー 1
 62
     7
370
    13
100
AcDbLine
 10
31.14237463954358
 20
83.9079362687815
 30
0.0
 11
30.33794484373773
 21
83.52708096288714
 31
0.0
  0
LINE
  5
259
330
1F
100
AcDbEntity
  8
レイヤー 1
 62
     7
370
    13
100
AcDbLine
 10
30.33794484373773
 20
83.52708096288714
 30
0.0
 11
29.49131262823759
 21
83.1882558219128
 31
0.0
  0
LINE
  5
25A
330
1F
100
AcDbEntity
  8
レイヤー 1
 62
     7
370
    13
100
AcDbLine
 10
29.49131262823759
 20
83.1882558219128
 30
0.0
 11
28.68705508720602
 21
82.97655470434421
 31
0.0
  0
LINE
  5
25B
330
1F
100
AcDbEntity
  8
レイヤー 1
 62
     7
370
    13
100
AcDbLine
 10
28.68705508720602
 20
82.97655470434421
 30
0.0
 11
27.88262529140017
 21
82.84960293571277
 31
0.0
  0
LINE
  5
25C
330
1F
100
AcDbEntity
  8
レイヤー 1
 62
     7
370
    13
100
AcDbLine
 10
27.88262529140017
 20
82.84960293571277
 30
0.0
 11
27.0783677503686
 21
82.80740051601845
 31
0.0
  0
LINE
  5
25D
330
1F
100
AcDbEntity
  8
レイヤー 1
 62
     7
370
    13
100
AcDbLine
 10
27.0783677503686
 20
82.80740051601845
 30
0.0
 11
26.27393795456275
 21
82.84960293571277
 31
0.0
  0
LINE
  5
25E
330
1F
100
AcDbEntity
  8
レイヤー 1
 62
     7
370
    13
100
AcDbLine
 10
26.27393795456275
 20
82.84960293571277
 30
0.0
 11
25.80833329973125
 21
82.89197761018133
 31
0.0
  0
LINE
  5
25F
330
1F
100
AcDbEntity
  8
レイヤー 1
 62
     7
370
    13
100
AcDbLine
 10
297.6305012005257
 20
35.43630406518761
 30
0.0
 11
296.9111652632055
 21
34.58967184968745
 31
0.0
  0
LINE
  5
260
330
1F
100
AcDbEntity
  8
レイヤー 1
 62
     7
370
    13
100
AcDbLine
 10
296.9111652632055
 20
34.58967184968745
 30
0.0
 11
296.1067354673997
 21
33.82761672835019
 31
0.0
  0
LINE
  5
261
330
1F
100
AcDbEntity
  8
レイヤー 1
 62
     7
370
    13
100
AcDbLine
 10
296.1067354673997
 20
33.82761672835019
 30
0.0
 11
295.3446803460624
 21
33.19268563041865
 31
0.0
  0
LINE
  5
262
330
1F
100
AcDbEntity
  8
レイヤー 1
 62
     7
370
    13
100
AcDbLine
 10
295.3446803460624
 20
33.19268563041865
 30
0.0
 11
294.5402505502566
 21
32.5999569521814
 31
0.0
  0
LINE
  5
263
330
1F
100
AcDbEntity
  8
レイヤー 1
 62
     7
370
    13
100
AcDbLine
 10
294.5402505502566
 20
32.5999569521814
 30
0.0
 11
293.7361652639993
 21
32.09197762288133
 31
0.0
  0
LINE
  5
264
330
1F
100
AcDbEntity
  8
レイヤー 1
 62
     7
370
    13
100
AcDbLine
 10
293.7361652639993
 20
32.09197762288133
 30
0.0
 11
292.8893607937249
 21
31.66874764251838
 31
0.0
  0
LINE
  5
265
330
1F
100
AcDbEntity
  8
レイヤー 1
 62
     7
370
    13
100
AcDbLine
 10
292.8893607937249
 20
31.66874764251838
 30
0.0
 11
292.0849309979191
 21
31.37229717601264
 31
0.0
  0
LINE
  5
266
330
1F
100
AcDbEntity
  8
レイヤー 1
 62
     7
370
    13
100
AcDbLine
 10
292.0849309979191
 20
31.37229717601264
 30
0.0
 11
291.2384710371932
 21
31.11822138397545
 31
0.0
  0
LINE
  5
267
330
1F
100
AcDbEntity
  8
レイヤー 1
 62
     7
370
    13
100
AcDbLine
 10
291.2384710371932
 20
31.11822138397545
 30
0.0
 11
290.4340412413873
 21
30.99126961534401
 31
0.0
  0
LINE
  5
268
330
1F
100
AcDbEntity
  8
レイヤー 1
 62
     7
370
    13
100
AcDbLine
 10
290.4340412413873
 20
30.99126961534401
 30
0.0
 11
289.6296114455815
 21
30.94906719564969
 31
0.0
  0
LINE
  5
269
330
1F
100
AcDbEntity
  8
レイヤー 1
 62
     7
370
    13
100
AcDbLine
 10
289.6296114455815
 20
30.94906719564969
 30
0.0
 11
288.8255261593242
 21
30.99126961534401
 31
0.0
  0
LINE
  5
26A
330
1F
100
AcDbEntity
  8
レイヤー 1
 62
     7
370
    13
100
AcDbLine
 10
288.8255261593242
 20
30.99126961534401
 30
0.0
 11
288.402123924187
 21
31.07601896428116
 31
0.0
  0
LINE
  5
26B
330
1F
100
AcDbEntity
  8
レイヤー 1
 62
     7
370
    13
100
AcDbLine
 10
297.7999998984
 20
35.90208097479339
 30
0.0
 11
35.24858394841284
 21
87.76041429516212
 31
0.0
  0
LINE
  5
26C
330
1F
100
AcDbEntity
  8
レイヤー 1
 62
     7
370
    13
100
AcDbLine
 10
297.6305012005257
 20
35.43630406518761
 30
0.0
 11
297.6728758749943
 21
35.47867873965617
 31
0.0
  0
LINE
  5
26D
330
1F
100
AcDbEntity
  8
レイヤー 1
 62
     7
370
    13
100
AcDbLine
 10
297.6728758749943
 20
35.47867873965617
 30
0.0
 11
297.7152505494628
 21
35.56325583381906
 31
0.0
  0
LINE
  5
26E
330
1F
100
AcDbEntity
  8
レイヤー 1
 62
     7
370
    13
100
AcDbLine
 10
297.7152505494628
 20
35.56325583381906
 30
0.0
 11
297.7576252239314
 21
35.64800518275621
 31
0.0
  0
LINE
  5
26F
330
1F
100
AcDbEntity
  8
レイヤー 1
 62
     7
370
    13
100
AcDbLine
 10
297.7576252239314
 20
35.64800518275621
 30
0.0
 11
297.7999998984
 21
35.73258227691909
 31
0.0
  0
LINE
  5
270
330
1F
100
AcDbEntity
  8
レイヤー 1
 62
     7
370
    13
100
AcDbLine
 10
297.7999998984
 20
35.73258227691909
 30
0.0
 11
297.7999998984
 21
35.81733162585624
 31
0.0
  0
LINE
  5
271
330
1F
100
AcDbEntity
  8
レイヤー 1
 62
     7
370
    13
100
AcDbLine
 10
297.7999998984
 20
35.81733162585624
 30
0.0
 11
297.7999998984
 21
35.90208097479339
 31
0.0
  0
LINE
  5
272
330
1F
100
AcDbEntity
  8
レイヤー 1
 62
     7
370
    13
100
AcDbLine
 10
297.8423745728686
 20
36.74871319029353
 30
0.0
 11
35.24858394841284
 21
88.60704651066229
 31
0.0
  0
LINE
  5
273
330
1F
100
AcDbEntity
  8
レイヤー 1
 62
     7
370
    13
100
AcDbLine
 10
297.7999998984
 20
35.90208097479339
 30
0.0
 11
297.8423745728686
 21
36.74871319029353
 31
0.0
  0
LINE
  5
274
330
1F
100
AcDbEntity
  8
レイヤー 1
 62
     7
370
    13
100
AcDbLine
 10
297.8423745728686
 20
36.74871319029353
 30
0.0
 11
297.8423745728686
 21
36.87566495892497
 31
0.0
  0
LINE
  5
275
330
1F
100
AcDbEntity
  8
レイヤー 1
 62
     7
370
    13
100
AcDbLine
 10
297.8423745728686
 20
36.87566495892497
 30
0.0
 11
297.8423745728686
 21
36.96041430786212
 31
0.0
  0
LINE
  5
276
330
1F
100
AcDbEntity
  8
レイヤー 1
 62
     7
370
    13
100
AcDbLine
 10
297.8423745728686
 20
36.96041430786212
 30
0.0
 11
297.7999998984
 21
37.044991402025
 31
0.0
  0
LINE
  5
277
330
1F
100
AcDbEntity
  8
レイヤー 1
 62
     7
370
    13
100
AcDbLine
 10
297.7999998984
 20
37.044991402025
 30
0.0
 11
297.7576252239314
 21
37.08736607649359
 31
0.0
  0
LINE
  5
278
330
1F
100
AcDbEntity
  8
レイヤー 1
 62
     7
370
    13
100
AcDbLine
 10
297.7576252239314
 20
37.08736607649359
 30
0.0
 11
297.7152505494628
 21
37.17194317065648
 31
0.0
  0
LINE
  5
279
330
1F
100
AcDbEntity
  8
レイヤー 1
 62
     7
370
    13
100
AcDbLine
 10
297.7152505494628
 20
37.17194317065648
 30
0.0
 11
297.6728758749943
 21
37.17194317065648
 31
0.0
  0
LINE
  5
27A
330
1F
100
AcDbEntity
  8
レイヤー 1
 62
     7
370
    13
100
AcDbLine
 10
297.6728758749943
 20
37.17194317065648
 30
0.0
 11
297.6305012005257
 21
37.21431784512504
 31
0.0
  0
LINE
  5
27B
330
1F
100
AcDbEntity
  8
レイヤー 1
 62
     8
370
    13
100
AcDbLine
 10
33.25904130568107
 20
98.25899827691248
 30
0.0
 11
33.30141598014966
 21
98.25899827691248
 31
0.0
  0
LINE
  5
27C
330
1F
100
AcDbEntity
  8
レイヤー 1
 62
     8
370
    13
100
AcDbLine
 10
34.40195173291271
 20
89.41130405169386
 30
0.0
 11
34.35974931321839
 21
89.41130405169386
 31
0.0
  0
LINE
  5
27D
330
1F
100
AcDbEntity
  8
レイヤー 1
 62
     8
370
    13
100
AcDbLine
 10
33.47074242324966
 20
98.38595004554395
 30
0.0
 11
21.87127817918774
 21
95.16874762664338
 31
0.0
  0
LINE
  5
27E
330
1F
100
AcDbEntity
  8
レイヤー 1
 62
     8
370
    13
100
AcDbLine
 10
21.87127817918774
 20
95.16874762664338
 30
0.0
 11
21.99840220259345
 21
95.16874762664338
 31
0.0
  0
LINE
  5
27F
330
1F
100
AcDbEntity
  8
レイヤー 1
 62
     8
370
    13
100
AcDbLine
 10
26.44326439766279
 20
94.27956848190041
 30
0.0
 11
26.48563907213138
 21
94.27956848190041
 31
0.0
  0
LINE
  5
280
330
1F
100
AcDbEntity
  8
レイヤー 1
 62
     8
370
    13
100
AcDbLine
 10
21.82907575949342
 20
95.12637295217482
 30
0.0
 11
21.82907575949342
 21
95.04162360323767
 31
0.0
  0
LINE
  5
281
330
1F
100
AcDbEntity
  8
レイヤー 1
 62
     8
370
    13
100
AcDbLine
 10
21.53262529298767
 20
86.57495693868768
 30
0.0
 11
21.53262529298767
 21
86.4903798445248
 31
0.0
  0
LINE
  5
282
330
1F
100
AcDbEntity
  8
レイヤー 1
 62
     8
370
    13
100
AcDbLine
 10
21.57499996745624
 20
86.4480051700562
 30
0.0
 11
21.49025061851911
 21
86.4480051700562
 31
0.0
  0
LINE
  5
283
330
1F
100
AcDbEntity
  8
レイヤー 1
 62
     8
370
    13
100
AcDbLine
 10
21.53262529298767
 20
86.4903798445248
 30
0.0
 11
21.57499996745624
 21
86.4903798445248
 31
0.0
  0
LINE
  5
284
330
1F
100
AcDbEntity
  8
レイヤー 1
 62
     8
370
    13
100
AcDbLine
 10
26.48563907213138
 20
94.19499138773753
 30
0.0
 11
26.44326439766279
 21
94.19499138773753
 31
0.0
  0
LINE
  5
285
330
1F
100
AcDbEntity
  8
レイヤー 1
 62
     8
370
    13
100
AcDbLine
 10
21.95602752812489
 20
95.08399827770623
 30
0.0
 11
21.82907575949342
 21
95.12637295217482
 31
0.0
  0
LINE
  5
286
330
1F
100
AcDbEntity
  8
レイヤー 1
 62
     8
370
    13
100
AcDbLine
 10
299.4508896549317
 20
36.45226272378778
 30
0.0
 11
299.4508896549317
 21
36.53701207272493
 31
0.0
  0
LINE
  5
287
330
1F
100
AcDbEntity
  8
レイヤー 1
 62
     8
370
    13
100
AcDbLine
 10
299.4508896549317
 20
36.53701207272493
 30
0.0
 11
299.4508896549317
 21
36.62158916688782
 31
0.0
  0
LINE
  5
288
330
1F
100
AcDbEntity
  8
レイヤー 1
 62
     8
370
    13
100
AcDbLine
 10
299.4508896549317
 20
36.62158916688782
 30
0.0
 11
299.4088594900117
 21
36.70633851582497
 31
0.0
  0
LINE
  5
289
330
1F
100
AcDbEntity
  8
レイヤー 1
 62
     8
370
    13
100
AcDbLine
 10
299.4088594900117
 20
36.70633851582497
 30
0.0
 11
299.4088594900117
 21
36.74871319029353
 31
0.0
  0
LINE
  5
28A
330
1F
100
AcDbEntity
  8
レイヤー 1
 62
     8
370
    13
100
AcDbLine
 10
299.4088594900117
 20
36.74871319029353
 30
0.0
 11
299.3661403059946
 21
36.79091560998785
 31
0.0
  0
LINE
  5
28B
330
1F
100
AcDbEntity
  8
レイヤー 1
 62
     8
370
    13
100
AcDbLine
 10
299.3661403059946
 20
36.79091560998785
 30
0.0
 11
299.2817354666059
 21
36.83329028445641
 31
0.0
  0
POINT
  5
28C
330
1F
100
AcDbEntity
  8
レイヤー 1
 62
     8
370
    13
100
AcDbPoint
 10
299.2817354666059
 20
35.14002585345611
 30
0.0
  0
LINE
  5
28D
330
1F
100
AcDbEntity
  8
レイヤー 1
 62
     8
370
    13
100
AcDbLine
 10
299.2817354666059
 20
35.14002585345611
 30
0.0
 11
299.3241101410745
 21
35.14002585345611
 31
0.0
  0
LINE
  5
28E
330
1F
100
AcDbEntity
  8
レイヤー 1
 62
     8
370
    13
100
AcDbLine
 10
297.7576252239314
 20
37.17194317065648
 30
0.0
 11
297.7576252239314
 21
37.25669251959363
 31
0.0
  0
LINE
  5
28F
330
1F
100
AcDbEntity
  8
レイヤー 1
 62
     8
370
    13
100
AcDbLine
 10
296.1067354673997
 20
37.59534540579367
 30
0.0
 11
296.1067354673997
 21
37.51059605685654
 31
0.0
  0
POINT
  5
290
330
1F
100
AcDbEntity
  8
レイヤー 1
 62
     8
370
    13
100
AcDbPoint
 10
299.4508896549317
 20
35.56325583381906
 30
0.0
  0
LINE
  5
291
330
1F
100
AcDbEntity
  8
レイヤー 1
 62
     8
370
    13
100
AcDbLine
 10
299.4508896549317
 20
35.56325583381906
 30
0.0
 11
299.4508896549317
 21
35.60563050828765
 31
0.0
  0
POINT
  5
292
330
1F
100
AcDbEntity
  8
レイヤー 1
 62
     8
370
    13
100
AcDbPoint
 10
299.4932643294003
 20
36.40988804931922
 30
0.0
  0
LINE
  5
293
330
1F
100
AcDbEntity
  8
レイヤー 1
 62
     8
370
    13
100
AcDbLine
 10
299.4932643294003
 20
36.40988804931922
 30
0.0
 11
299.4932643294003
 21
36.45226272378778
 31
0.0
  0
LINE
  5
294
330
1F
100
AcDbEntity
  8
レイヤー 1
 62
     8
370
    13
100
AcDbLine
 10
299.4932643294003
 20
36.45226272378778
 30
0.0
 11
299.4508896549317
 21
36.45226272378778
 31
0.0
  0
LINE
  5
295
330
1F
100
AcDbEntity
  8
レイヤー 1
 62
     8
370
    13
100
AcDbLine
 10
21.61737464192483
 20
84.4159155980816
 30
0.0
 11
21.82907575949342
 21
84.28896382945013
 31
0.0
  0
LINE
  5
296
330
1F
100
AcDbEntity
  8
レイヤー 1
 62
     8
370
    13
100
AcDbLine
 10
21.82907575949342
 20
84.28896382945013
 30
0.0
 11
22.04060462228777
 21
84.16201206081868
 31
0.0
  0
LINE
  5
297
330
1F
100
AcDbEntity
  8
レイヤー 1
 62
     8
370
    13
100
AcDbLine
 10
22.04060462228777
 20
84.16201206081868
 30
0.0
 11
22.25230573985637
 21
84.03488803741297
 31
0.0
  0
LINE
  5
298
330
1F
100
AcDbEntity
  8
レイヤー 1
 62
     8
370
    13
100
AcDbLine
 10
22.25230573985637
 20
84.03488803741297
 30
0.0
 11
22.46400685742496
 21
83.95031094325009
 31
0.0
  0
LINE
  5
299
330
1F
100
AcDbEntity
  8
レイヤー 1
 62
     8
370
    13
100
AcDbLine
 10
22.46400685742496
 20
83.95031094325009
 30
0.0
 11
22.67570797499356
 21
83.82335917461862
 31
0.0
  0
LINE
  5
29A
330
1F
100
AcDbEntity
  8
レイヤー 1
 62
     8
370
    13
100
AcDbLine
 10
22.67570797499356
 20
83.82335917461862
 30
0.0
 11
22.88740909256218
 21
83.73860982568146
 31
0.0
  0
LINE
  5
29B
330
1F
100
AcDbEntity
  8
レイヤー 1
 62
     8
370
    13
100
AcDbLine
 10
22.88740909256218
 20
83.73860982568146
 30
0.0
 11
23.0989379553565
 21
83.65403273151858
 31
0.0
  0
LINE
  5
29C
330
1F
100
AcDbEntity
  8
レイヤー 1
 62
     8
370
    13
100
AcDbLine
 10
23.0989379553565
 20
83.65403273151858
 30
0.0
 11
23.35301374739369
 21
83.56928338258143
 31
0.0
  0
LINE
  5
29D
330
1F
100
AcDbEntity
  8
レイヤー 1
 62
     8
370
    13
100
AcDbLine
 10
23.35301374739369
 20
83.56928338258143
 30
0.0
 11
23.56471486496228
 21
83.48470628841855
 31
0.0
  0
LINE
  5
29E
330
1F
100
AcDbEntity
  8
レイヤー 1
 62
     8
370
    13
100
AcDbLine
 10
23.56471486496228
 20
83.48470628841855
 30
0.0
 11
23.77641598253091
 21
83.44233161394999
 31
0.0
  0
POINT
  5
29F
330
1F
100
AcDbEntity
  8
レイヤー 1
 62
     8
370
    13
100
AcDbPoint
 10
21.61737464192483
 20
84.4159155980816
 30
0.0
  0
LINE
  5
2A0
330
1F
100
AcDbEntity
  8
レイヤー 1
 62
     8
370
    13
100
AcDbLine
 10
21.61737464192483
 20
84.4159155980816
 30
0.0
 11
21.61737464192483
 21
84.37371317838728
 31
0.0
  0
LINE
  5
2A1
330
1F
100
AcDbEntity
  8
レイヤー 1
 62
     8
370
    13
100
AcDbLine
 10
21.61737464192483
 20
84.37371317838728
 30
0.0
 11
21.65974931639339
 21
84.33133850391872
 31
0.0
  0
LINE
  5
2A2
330
1F
100
AcDbEntity
  8
レイヤー 1
 62
     8
370
    13
100
AcDbLine
 10
33.59769419188113
 20
88.90332472239376
 30
0.0
 11
33.59769419188113
 21
88.98790181655664
 31
0.0
  0
LINE
  5
2A3
330
1F
100
AcDbEntity
  8
レイヤー 1
 62
     8
370
    13
100
AcDbLine
 10
33.59769419188113
 20
88.98790181655664
 30
0.0
 11
33.59769419188113
 21
89.03027649102523
 31
0.0
  0
LINE
  5
2A4
330
1F
100
AcDbEntity
  8
レイヤー 1
 62
     8
370
    13
100
AcDbLine
 10
33.59769419188113
 20
89.03027649102523
 30
0.0
 11
33.59769419188113
 21
89.11502583996236
 31
0.0
  0
LINE
  5
2A5
330
1F
100
AcDbEntity
  8
レイヤー 1
 62
     8
370
    13
100
AcDbLine
 10
33.59769419188113
 20
89.11502583996236
 30
0.0
 11
33.55531951741257
 21
89.15740051443095
 31
0.0
  0
LINE
  5
2A6
330
1F
100
AcDbEntity
  8
レイヤー 1
 62
     8
370
    13
100
AcDbLine
 10
33.55531951741257
 20
89.15740051443095
 30
0.0
 11
33.55531951741257
 21
89.19960293412527
 31
0.0
  0
LINE
  5
2A7
330
1F
100
AcDbEntity
  8
レイヤー 1
 62
     8
370
    13
100
AcDbLine
 10
33.55531951741257
 20
89.19960293412527
 30
0.0
 11
33.51294484294398
 21
89.24197760859383
 31
0.0
  0
LINE
  5
2A8
330
1F
100
AcDbEntity
  8
レイヤー 1
 62
     8
370
    13
100
AcDbLine
 10
33.51294484294398
 20
89.24197760859383
 30
0.0
 11
33.47074242324966
 21
89.28435228306239
 31
0.0
  0
LINE
  5
2A9
330
1F
100
AcDbEntity
  8
レイヤー 1
 62
     8
370
    13
100
AcDbLine
 10
33.47074242324966
 20
89.28435228306239
 30
0.0
 11
33.4283677487811
 21
89.32655470275671
 31
0.0
  0
POINT
  5
2AA
330
1F
100
AcDbEntity
  8
レイヤー 1
 62
     8
370
    13
100
AcDbPoint
 10
33.30141598014966
 20
89.32655470275671
 30
0.0
  0
LINE
  5
2AB
330
1F
100
AcDbEntity
  8
レイヤー 1
 62
     8
370
    13
100
AcDbLine
 10
33.30141598014966
 20
89.32655470275671
 30
0.0
 11
33.25904130568107
 21
89.28435228306239
 31
0.0
  0
LINE
  5
2AC
330
1F
100
AcDbEntity
  8
レイヤー 1
 62
     8
370
    13
100
AcDbLine
 10
33.25904130568107
 20
89.28435228306239
 30
0.0
 11
33.25904130568107
 21
89.24197760859383
 31
0.0
  0
POINT
  5
2AD
330
1F
100
AcDbEntity
  8
レイヤー 1
 62
     8
370
    13
100
AcDbPoint
 10
21.82907575949342
 20
86.10935228385614
 30
0.0
  0
LINE
  5
2AE
330
1F
100
AcDbEntity
  8
レイヤー 1
 62
     8
370
    13
100
AcDbLine
 10
21.82907575949342
 20
86.10935228385614
 30
0.0
 11
21.78670108502486
 21
86.06697760938758
 31
0.0
  0
LINE
  5
2AF
330
1F
100
AcDbEntity
  8
レイヤー 1
 62
     8
370
    13
100
AcDbLine
 10
33.80939530944973
 20
89.5806304947939
 30
0.0
 11
33.80939530944973
 21
89.41130405169386
 31
0.0
  0
LINE
  5
2B0
330
1F
100
AcDbEntity
  8
レイヤー 1
 62
     8
370
    13
100
AcDbLine
 10
33.72464596051258
 20
89.41130405169386
 30
0.0
 11
33.72464596051258
 21
89.62300516926246
 31
0.0
  0
LINE
  5
2B1
330
1F
100
AcDbEntity
  8
レイヤー 1
 62
     8
370
    13
100
AcDbLine
 10
33.25904130568107
 20
89.66537984373105
 30
0.0
 11
33.25904130568107
 21
89.5382558203253
 31
0.0
  0
LINE
  5
2B2
330
1F
100
AcDbEntity
  8
レイヤー 1
 62
     8
370
    13
100
AcDbLine
 10
26.18936086039987
 20
91.4432213688942
 30
0.0
 11
26.14698618593131
 21
91.4432213688942
 31
0.0
  0
LINE
  5
2B3
330
1F
100
AcDbEntity
  8
レイヤー 1
 62
     8
370
    13
100
AcDbLine
 10
297.6305012005257
 20
35.43630406518761
 30
0.0
 11
35.07925750531281
 21
87.25226271108778
 31
0.0
  0
MTEXT
  5
2B5
330
1F
100
AcDbEntity
  8
0
370
    18
100
AcDbMText
 10
51.5
 20
203.2
 30
0.0
 40
15.38963644274636
 41
200.0128173064899
 71
     1
 72
     1
  1
{\fHGPｺﾞｼｯｸM|b0|i0;OPI-12C-PMH3・N\POPI-12C-PMH2・N\POPI-12C-PM2・N\POPI-12C-PM1・N}
  7
HGPｺﾞｼｯｸM
 73
     1
 44
0.7500000000000001
  0
VIEWPORT
  5
2B6
102
{ACAD_XDICTIONARY
360
2C0
102
}
330
1B
100
AcDbEntity
 67
     1
  8
0
100
AcDbViewport
 10
0.0
 20
0.0
 30
0.0
 40
436.05
 41
323.34
 68
     1
 69
     1
 12
206.25
 22
138.5
 13
0.0
 23
0.0
 14
10.0
 24
10.0
 15
10.0
 25
10.0
 16
0.0
 26
0.0
 36
1.0
 17
0.0
 27
0.0
 37
0.0
 42
50.0
 43
0.0
 44
0.0
 45
323.34
 50
0.0
 51
0.0
 72
   100
 90
   557152
  1

281
     0
 71
     1
 74
     0
110
0.0
120
0.0
130
0.0
111
1.0
121
0.0
131
0.0
112
0.0
122
1.0
132
0.0
 79
     0
146
0.0
  0
ENDSEC
  0
SECTION
  2
OBJECTS
  0
DICTIONARY
  5
C
330
0
100
AcDbDictionary
281
     1
  3
ACAD_GROUP
350
D
  3
ACAD_IMAGE_VARS
350
6F
  3
ACAD_LAYOUT
350
1A
  3
ACAD_MATERIAL
350
43
  3
ACAD_MLEADERSTYLE
350
6B
  3
ACAD_MLINESTYLE
350
17
  3
ACAD_PLOTSETTINGS
350
19
  3
ACAD_PLOTSTYLENAME
350
E
  3
ACAD_SCALELIST
350
47
  3
ACAD_TABLESTYLE
350
69
  3
ACAD_VISUALSTYLE
350
2A
  3
AcDbVariableDictionary
350
2B8
  3
DWGPROPS
350
2BF
  0
DICTIONARY
  5
2C2
330
8
100
AcDbDictionary
280
     1
281
     1
  3
ACAD_XREC_ROUNDTRIP
360
2C3
  0
DICTIONARY
  5
2C0
330
2B6
100
AcDbDictionary
280
     1
281
     1
  3
ACAD_XREC_ROUNDTRIP
360
2C1
  0
DICTIONARY
  5
D
102
{ACAD_REACTORS
330
C
102
}
330
C
100
AcDbDictionary
281
     1
  0
RASTERVARIABLES
  5
6F
102
{ACAD_REACTORS
330
C
102
}
330
C
100
AcDbRasterVariables
 90
        0
 70
     0
 71
     1
 72
     0
  0
DICTIONARY
  5
1A
102
{ACAD_REACTORS
330
C
102
}
330
C
100
AcDbDictionary
281
     1
  3
Model
350
22
  3
レイアウト1
350
1E
  0
DICTIONARY
  5
43
102
{ACAD_REACTORS
330
C
102
}
330
C
100
AcDbDictionary
281
     1
  3
ByBlock
350
45
  3
ByLayer
350
44
  3
Global
350
46
  0
DICTIONARY
  5
6B
102
{ACAD_REACTORS
330
C
102
}
330
C
100
AcDbDictionary
281
     1
  3
Standard
350
6C
  0
DICTIONARY
  5
17
102
{ACAD_REACTORS
330
C
102
}
330
C
100
AcDbDictionary
281
     1
  3
Standard
350
18
  0
DICTIONARY
  5
19
102
{ACAD_REACTORS
330
C
102
}
330
C
100
AcDbDictionary
281
     1
  0
ACDBDICTIONARYWDFLT
  5
E
102
{ACAD_REACTORS
330
C
102
}
330
C
100
AcDbDictionary
281
     1
  3
Normal
350
F
100
AcDbDictionaryWithDefault
340
F
  0
DICTIONARY
  5
47
102
{ACAD_REACTORS
330
C
102
}
330
C
100
AcDbDictionary
281
     1
  3
A0
350
48
  3
A1
350
49
  3
A2
350
4A
  3
A3
350
4B
  3
A4
350
4C
  3
A5
350
4D
  3
A6
350
4E
  3
A7
350
4F
  3
A8
350
50
  3
A9
350
51
  3
B0
350
52
  3
B1
350
53
  3
B2
350
54
  3
B3
350
55
  3
B4
350
56
  3
B5
350
57
  3
B6
350
58
  3
B7
350
59
  3
B8
350
5A
  3
B9
350
5B
  3
C0
350
5C
  3
C1
350
5D
  3
C2
350
5E
  3
C3
350
5F
  3
C4
350
60
  3
C5
350
61
  3
C6
350
62
  3
C7
350
63
  3
C8
350
64
  3
C9
350
65
  3
D0
350
66
  3
D1
350
67
  3
D2
350
68
  0
DICTIONARY
  5
69
102
{ACAD_REACTORS
330
C
102
}
330
C
100
AcDbDictionary
281
     1
  3
Standard
350
6A
  0
DICTIONARY
  5
2A
102
{ACAD_REACTORS
330
C
102
}
330
C
100
AcDbDictionary
281
     1
  3
2dWireframe
350
2F
  3
Basic
350
32
  3
Brighten
350
36
  3
ColorChange
350
3A
  3
Conceptual
350
34
  3
Dim
350
35
  3
EdgeColorOff
350
3D
  3
Facepattern
350
39
  3
Flat
350
2B
  3
FlatWithEdges
350
2C
  3
Gouraud
350
2D
  3
GouraudWithEdges
350
2E
  3
Hidden
350
31
  3
JitterOff
350
3B
  3
Linepattern
350
38
  3
OverhangOff
350
3C
  3
Realistic
350
33
  3
Shaded
350
42
  3
Shaded with edges
350
41
  3
Shades of Gray
350
3E
  3
Sketchy
350
3F
  3
Thicken
350
37
  3
Wireframe
350
30
  3
X-Ray
350
40
  0
DICTIONARY
  5
2B8
102
{ACAD_REACTORS
330
C
102
}
330
C
100
AcDbDictionary
281
     1
  3
CANNOSCALE
350
2C4
  3
CMLEADERSTYLE
350
2BA
  3
CTABLESTYLE
350
2B9
  3
DIMASSOC
350
2BD
  3
HIDETEXT
350
2BE
  3
MSLTSCALE
350
2C5
  0
XRECORD
  5
2BF
102
{ACAD_REACTORS
330
C
102
}
330
C
100
AcDbXrecord
280
     1
  1
DWGPROPS COOKIE
  2

  3

  4

  6

  7

  8
Hirofumi.Sakurai
  9

300
=
301
=
302
=
303
=
304
=
305
=
306
=
307
=
308
=
309
=
 40
0.0
 41
2459135.172626366
 42
2459135.172628484
  1

 90
        0
  0
XRECORD
  5
2C3
102
{ACAD_REACTORS
330
2C2
102
}
330
2C2
100
AcDbXrecord
280
     1
102
VTR_0.000_0.000_1.000_1.000_VISUALSTYLE
340
2F
102
VTR_0.000_0.000_1.000_1.000_GRIDDISPLAY
 70
     3
102
VTR_0.000_0.000_1.000_1.000_GRIDMAJOR
 70
     5
102
VTR_0.000_0.000_1.000_1.000_DEFAULTLIGHTING
280
     1
102
VTR_0.000_0.000_1.000_1.000_DEFAULTLIGHTINGTYPE
 70
     1
102
VTR_0.000_0.000_1.000_1.000_BRIGHTNESS
141
0.0
102
VTR_0.000_0.000_1.000_1.000_CONTRAST
142
0.0
  0
XRECORD
  5
2C1
102
{ACAD_REACTORS
330
2C0
102
}
330
2C0
100
AcDbXrecord
280
     1
102
VISUALSTYLE
340
2F
102
GRIDDISPLAY
 70
     2
102
GRIDMAJOR
 70
     5
102
DEFAULTLIGHTING
280
     1
102
DEFAULTLIGHTINGTYPE
 70
     1
102
BRIGHTNESS
141
0.0
102
CONTRAST
142
0.0
  0
LAYOUT
  5
22
102
{ACAD_REACTORS
330
1A
102
}
330
1A
100
AcDbPlotSettings
  1

  2
none_device
  4
Letter_(8.50_x_11.00_Inches)
  6

 40
6.35
 41
6.35
 42
6.35000508
 43
6.35000508
 44
215.9
 45
279.4
 46
0.0
 47
0.0
 48
0.0
 49
0.0
140
0.0
141
0.0
142
1.0
143
1.0
 70
  1712
 72
     0
 73
     0
 74
     0
  7

 75
     0
147
1.0
148
0.0
149
0.0
100
AcDbLayout
  1
Model
 70
     1
 71
     0
 10
26.81006024853099
 20
38.31577091142993
 11
374.8958332056719
 21
254.0
 12
0.0
 22
0.0
 32
0.0
 14
26.81006024853099
 24
38.31577091142993
 34
0.0
 15
374.8958332056719
 25
254.0
 35
0.0
146
0.0
 13
0.0
 23
0.0
 33
0.0
 16
1.0
 26
0.0
 36
0.0
 17
0.0
 27
1.0
 37
0.0
 76
     0
330
1F
331
29
  0
LAYOUT
  5
1E
102
{ACAD_REACTORS
330
1A
102
}
330
1A
100
AcDbPlotSettings
  1

  2
none_device
  4
ISO_A3_(420.00_x_297.00_MM)
  6

 40
7.5
 41
20.0
 42
7.5
 43
20.0
 44
420.0
 45
297.0
 46
-7.5
 47
-20.0
 48
0.0
 49
0.0
140
0.0
141
0.0
142
1.0
143
1.0
 70
   688
 72
     1
 73
     0
 74
     5
  7

 75
    16
147
1.0
148
0.0
149
0.0
100
AcDbLayout
  1
レイアウト1
 70
     0
 71
     1
 10
-7.5
 20
-20.0
 11
420.0
 21
297.0
 12
0.0
 22
0.0
 32
0.0
 14
-9.375
 24
-25.0
 34
0.0
 15
525.0
 25
371.25
 35
0.0
146
0.0
 13
0.0
 23
0.0
 33
0.0
 16
1.0
 26
0.0
 36
0.0
 17
0.0
 27
1.0
 37
0.0
 76
     0
330
1B
331
2B6
  0
MATERIAL
  5
45
102
{ACAD_REACTORS
330
43
102
}
102
{ACAD_XDICTIONARY
360
2F8
102
}
330
43
100
AcDbMaterial
  1
ByBlock
  0
MATERIAL
  5
44
102
{ACAD_REACTORS
330
43
102
}
102
{ACAD_XDICTIONARY
360
2F6
102
}
330
43
100
AcDbMaterial
  1
ByLayer
  0
MATERIAL
  5
46
102
{ACAD_REACTORS
330
43
102
}
102
{ACAD_XDICTIONARY
360
2FA
102
}
330
43
100
AcDbMaterial
  1
Global
  0
MLEADERSTYLE
  5
6C
102
{ACAD_REACTORS
330
6B
102
}
102
{ACAD_XDICTIONARY
360
2FD
102
}
330
6B
100
AcDbMLeaderStyle
170
     2
171
     1
172
     0
 90
        2
 40
0.0
 41
0.0
173
     1
 91
-1056964608
340
14
 92
       -2
290
     1
 42
0.09
291
     1
 43
0.36
  3
Standard
341
0
 44
0.18
300

342
11
174
     1
178
     6
175
     1
176
     0
 93
-1056964608
 45
0.18
292
     0
297
     0
 46
0.18
343
0
 94
-1056964608
 47
1.0
 49
1.0
140
1.0
293
     1
141
0.0
294
     1
177
     0
142
1.0
295
     0
296
     0
143
0.125
1001
ACAD_MLEADERVER
1070
     2
  0
MLINESTYLE
  5
18
102
{ACAD_REACTORS
330
17
102
}
330
17
100
AcDbMlineStyle
  2
Standard
 70
     0
  3

 62
   256
 51
90.0
 52
90.0
 71
     2
 49
0.5
 62
   256
  6
BYLAYER
 49
-0.5
 62
   256
  6
BYLAYER
  0
ACDBPLACEHOLDER
  5
F
102
{ACAD_REACTORS
330
E
102
}
330
E
  0
SCALE
  5
48
102
{ACAD_REACTORS
330
47
102
}
330
47
100
AcDbScale
 70
     0
300
1:1
140
1.0
141
1.0
290
     1
  0
SCALE
  5
49
102
{ACAD_REACTORS
330
47
102
}
330
47
100
AcDbScale
 70
     0
300
1:2
140
1.0
141
2.0
290
     0
  0
SCALE
  5
4A
102
{ACAD_REACTORS
330
47
102
}
330
47
100
AcDbScale
 70
     0
300
1:4
140
1.0
141
4.0
290
     0
  0
SCALE
  5
4B
102
{ACAD_REACTORS
330
47
102
}
330
47
100
AcDbScale
 70
     0
300
1:5
140
1.0
141
5.0
290
     0
  0
SCALE
  5
4C
102
{ACAD_REACTORS
330
47
102
}
330
47
100
AcDbScale
 70
     0
300
1:8
140
1.0
141
8.0
290
     0
  0
SCALE
  5
4D
102
{ACAD_REACTORS
330
47
102
}
330
47
100
AcDbScale
 70
     0
300
1:10
140
1.0
141
10.0
290
     0
  0
SCALE
  5
4E
102
{ACAD_REACTORS
330
47
102
}
330
47
100
AcDbScale
 70
     0
300
1:16
140
1.0
141
16.0
290
     0
  0
SCALE
  5
4F
102
{ACAD_REACTORS
330
47
102
}
330
47
100
AcDbScale
 70
     0
300
1:20
140
1.0
141
20.0
290
     0
  0
SCALE
  5
50
102
{ACAD_REACTORS
330
47
102
}
330
47
100
AcDbScale
 70
     0
300
1:30
140
1.0
141
30.0
290
     0
  0
SCALE
  5
51
102
{ACAD_REACTORS
330
47
102
}
330
47
100
AcDbScale
 70
     0
300
1:40
140
1.0
141
40.0
290
     0
  0
SCALE
  5
52
102
{ACAD_REACTORS
330
47
102
}
330
47
100
AcDbScale
 70
     0
300
1:50
140
1.0
141
50.0
290
     0
  0
SCALE
  5
53
102
{ACAD_REACTORS
330
47
102
}
330
47
100
AcDbScale
 70
     0
300
1:100
140
1.0
141
100.0
290
     0
  0
SCALE
  5
54
102
{ACAD_REACTORS
330
47
102
}
330
47
100
AcDbScale
 70
     0
300
2:1
140
2.0
141
1.0
290
     0
  0
SCALE
  5
55
102
{ACAD_REACTORS
330
47
102
}
330
47
100
AcDbScale
 70
     0
300
4:1
140
4.0
141
1.0
290
     0
  0
SCALE
  5
56
102
{ACAD_REACTORS
330
47
102
}
330
47
100
AcDbScale
 70
     0
300
8:1
140
8.0
141
1.0
290
     0
  0
SCALE
  5
57
102
{ACAD_REACTORS
330
47
102
}
330
47
100
AcDbScale
 70
     0
300
10:1
140
10.0
141
1.0
290
     0
  0
SCALE
  5
58
102
{ACAD_REACTORS
330
47
102
}
330
47
100
AcDbScale
 70
     0
300
100:1
140
100.0
141
1.0
290
     0
  0
SCALE
  5
59
102
{ACAD_REACTORS
330
47
102
}
330
47
100
AcDbScale
 70
     0
300
1/128" = 1'-0"
140
0.0078125
141
12.0
290
     0
  0
SCALE
  5
5A
102
{ACAD_REACTORS
330
47
102
}
330
47
100
AcDbScale
 70
     0
300
1/64" = 1'-0"
140
0.015625
141
12.0
290
     0
  0
SCALE
  5
5B
102
{ACAD_REACTORS
330
47
102
}
330
47
100
AcDbScale
 70
     0
300
1/32" = 1'-0"
140
0.03125
141
12.0
290
     0
  0
SCALE
  5
5C
102
{ACAD_REACTORS
330
47
102
}
330
47
100
AcDbScale
 70
     0
300
1/16" = 1'-0"
140
0.0625
141
12.0
290
     0
  0
SCALE
  5
5D
102
{ACAD_REACTORS
330
47
102
}
330
47
100
AcDbScale
 70
     0
300
3/32" = 1'-0"
140
0.09375
141
12.0
290
     0
  0
SCALE
  5
5E
102
{ACAD_REACTORS
330
47
102
}
330
47
100
AcDbScale
 70
     0
300
1/8" = 1'-0"
140
0.125
141
12.0
290
     0
  0
SCALE
  5
5F
102
{ACAD_REACTORS
330
47
102
}
330
47
100
AcDbScale
 70
     0
300
3/16" = 1'-0"
140
0.1875
141
12.0
290
     0
  0
SCALE
  5
60
102
{ACAD_REACTORS
330
47
102
}
330
47
100
AcDbScale
 70
     0
300
1/4" = 1'-0"
140
0.25
141
12.0
290
     0
  0
SCALE
  5
61
102
{ACAD_REACTORS
330
47
102
}
330
47
100
AcDbScale
 70
     0
300
3/8" = 1'-0"
140
0.375
141
12.0
290
     0
  0
SCALE
  5
62
102
{ACAD_REACTORS
330
47
102
}
330
47
100
AcDbScale
 70
     0
300
1/2" = 1'-0"
140
0.5
141
12.0
290
     0
  0
SCALE
  5
63
102
{ACAD_REACTORS
330
47
102
}
330
47
100
AcDbScale
 70
     0
300
3/4" = 1'-0"
140
0.75
141
12.0
290
     0
  0
SCALE
  5
64
102
{ACAD_REACTORS
330
47
102
}
330
47
100
AcDbScale
 70
     0
300
1" = 1'-0"
140
1.0
141
12.0
290
     0
  0
SCALE
  5
65
102
{ACAD_REACTORS
330
47
102
}
330
47
100
AcDbScale
 70
     0
300
1-1/2" = 1'-0"
140
1.5
141
12.0
290
     0
  0
SCALE
  5
66
102
{ACAD_REACTORS
330
47
102
}
330
47
100
AcDbScale
 70
     0
300
3" = 1'-0"
140
3.0
141
12.0
290
     0
  0
SCALE
  5
67
102
{ACAD_REACTORS
330
47
102
}
330
47
100
AcDbScale
 70
     0
300
6" = 1'-0"
140
6.0
141
12.0
290
     0
  0
SCALE
  5
68
102
{ACAD_REACTORS
330
47
102
}
330
47
100
AcDbScale
 70
     0
300
1'-0" = 1'-0"
140
12.0
141
12.0
290
     0
  0
TABLESTYLE
  5
6A
102
{ACAD_REACTORS
330
69
102
}
330
69
100
AcDbTableStyle
  3
Standard
 70
     0
 71
     0
 40
0.06
 41
0.06
280
     0
281
     0
  7
Standard
140
0.18
170
     2
 62
     0
 63
   257
283
     0
274
    -2
284
     1
 64
     0
275
    -2
285
     1
 65
     0
276
    -2
286
     1
 66
     0
277
    -2
287
     1
 67
     0
278
    -2
288
     1
 68
     0
279
    -2
289
     1
 69
     0
  7
Standard
140
0.25
170
     5
 62
     0
 63
   257
283
     0
274
    -2
284
     1
 64
     0
275
    -2
285
     1
 65
     0
276
    -2
286
     1
 66
     0
277
    -2
287
     1
 67
     0
278
    -2
288
     1
 68
     0
279
    -2
289
     1
 69
     0
  7
Standard
140
0.18
170
     5
 62
     0
 63
   257
283
     0
274
    -2
284
     1
 64
     0
275
    -2
285
     1
 65
     0
276
    -2
286
     1
 66
     0
277
    -2
287
     1
 67
     0
278
    -2
288
     1
 68
     0
279
    -2
289
     1
 69
     0
  0
VISUALSTYLE
  5
2F
102
{ACAD_REACTORS
330
2A
102
}
102
{ACAD_XDICTIONARY
360
2CE
102
}
330
2A
100
AcDbVisualStyle
  2
2dWireframe
 70
     4
 71
     0
 72
     2
 73
     0
 90
        0
 40
0.6
 41
30.0
 62
     5
 63
     7
 74
     1
 91
        4
 64
     7
 65
   257
 75
     1
175
     1
 42
1.0
 92
        0
 66
   257
 43
1.0
 76
     1
 77
     6
 78
     2
 67
     7
 79
     5
170
     0
171
     0
290
     0
174
     0
 93
        1
 44
0.0
173
     0
291
     0
 45
0.0
1001
ACAD
1000
AcDbSavedByObjectVersion
1070
     0
  0
VISUALSTYLE
  5
32
102
{ACAD_REACTORS
330
2A
102
}
102
{ACAD_XDICTIONARY
360
2D4
102
}
330
2A
100
AcDbVisualStyle
  2
Basic
 70
     7
 71
     1
 72
     0
 73
     1
 90
        0
 40
0.6
 41
30.0
 62
     5
 63
     7
 74
     0
 91
        4
 64
     7
 65
   257
 75
     1
175
     1
 42
1.0
 92
        8
 66
     7
 43
1.0
 76
     1
 77
     6
 78
     2
 67
     7
 79
     5
170
     0
171
     0
290
     0
174
     0
 93
        1
 44
0.0
173
     0
291
     1
 45
0.0
1001
ACAD
1000
AcDbSavedByObjectVersion
1070
     0
  0
VISUALSTYLE
  5
36
102
{ACAD_REACTORS
330
2A
102
}
102
{ACAD_XDICTIONARY
360
2DC
102
}
330
2A
100
AcDbVisualStyle
  2
Brighten
 70
    12
 71
     2
 72
     2
 73
     0
 90
        0
 40
0.6
 41
30.0
 62
     5
 63
     7
 74
     1
 91
        4
 64
     7
 65
   257
 75
     1
175
     1
 42
1.0
 92
        8
 66
     7
 43
1.0
 76
     1
 77
     6
 78
     2
 67
     7
 79
     5
170
     0
171
     0
290
     0
174
     0
 93
        1
 44
50.0
173
     0
291
     1
 45
0.0
1001
ACAD
1000
AcDbSavedByObjectVersion
1070
     0
  0
VISUALSTYLE
  5
3A
102
{ACAD_REACTORS
330
2A
102
}
102
{ACAD_XDICTIONARY
360
2E4
102
}
330
2A
100
AcDbVisualStyle
  2
ColorChange
 70
    16
 71
     2
 72
     2
 73
     3
 90
        0
 40
0.6
 41
30.0
 62
     5
 63
     8
 74
     1
 91
        4
 64
     7
 65
   257
 75
     1
175
     1
 42
1.0
 92
        8
 66
     8
 43
1.0
 76
     1
 77
     6
 78
     2
 67
     7
 79
     5
170
     0
171
     0
290
     0
174
     0
 93
        1
 44
0.0
173
     0
291
     1
 45
0.0
1001
ACAD
1000
AcDbSavedByObjectVersion
1070
     0
  0
VISUALSTYLE
  5
34
102
{ACAD_REACTORS
330
2A
102
}
102
{ACAD_XDICTIONARY
360
2D8
102
}
330
2A
100
AcDbVisualStyle
  2
Conceptual
 70
     9
 71
     3
 72
     2
 73
     0
 90
        0
 40
0.6
 41
30.0
 62
     5
 63
     7
 74
     2
 91
        2
 64
     7
 65
   257
 75
     1
175
     1
 42
179.0
 92
        8
 66
     7
 43
1.0
 76
     1
 77
     6
 78
     2
 67
     7
 79
     3
170
     0
171
     0
290
     0
174
     0
 93
        1
 44
0.0
173
     0
291
     0
 45
0.0
1001
ACAD
1000
AcDbSavedByObjectVersion
1070
     0
  0
VISUALSTYLE
  5
35
102
{ACAD_REACTORS
330
2A
102
}
102
{ACAD_XDICTIONARY
360
2DA
102
}
330
2A
100
AcDbVisualStyle
  2
Dim
 70
    11
 71
     2
 72
     2
 73
     0
 90
        0
 40
0.6
 41
30.0
 62
     5
 63
     7
 74
     1
 91
        4
 64
     7
 65
   257
 75
     1
175
     1
 42
1.0
 92
        8
 66
     7
 43
1.0
 76
     1
 77
     6
 78
     2
 67
     7
 79
     5
170
     0
171
     0
290
     0
174
     0
 93
        1
 44
-50.0
173
     0
291
     1
 45
0.0
1001
ACAD
1000
AcDbSavedByObjectVersion
1070
     0
  0
VISUALSTYLE
  5
3D
102
{ACAD_REACTORS
330
2A
102
}
102
{ACAD_XDICTIONARY
360
2EA
102
}
330
2A
100
AcDbVisualStyle
  2
EdgeColorOff
 70
    22
 71
     2
 72
     2
 73
     0
 90
        0
 40
0.6
 41
30.0
 62
     5
 63
     7
 74
     1
 91
        4
 64
     7
 65
   257
 75
     1
175
     1
 42
1.0
 92
        8
 66
     7
 43
1.0
 76
     1
 77
     6
 78
     2
 67
     7
 79
     5
170
     0
171
     0
290
     0
174
     0
 93
        1
 44
0.0
173
     0
291
     1
 45
0.0
1001
ACAD
1000
AcDbSavedByObjectVersion
1070
     0
  0
VISUALSTYLE
  5
39
102
{ACAD_REACTORS
330
2A
102
}
102
{ACAD_XDICTIONARY
360
2E2
102
}
330
2A
100
AcDbVisualStyle
  2
Facepattern
 70
    15
 71
     2
 72
     2
 73
     0
 90
        0
 40
0.6
 41
30.0
 62
     5
 63
     7
 74
     1
 91
        4
 64
     7
 65
   257
 75
     1
175
     1
 42
1.0
 92
        8
 66
     7
 43
1.0
 76
     1
 77
     6
 78
     2
 67
     7
 79
     5
170
     0
171
     0
290
     0
174
     0
 93
        1
 44
0.0
173
     0
291
     1
 45
0.0
1001
ACAD
1000
AcDbSavedByObjectVersion
1070
     0
  0
VISUALSTYLE
  5
2B
102
{ACAD_REACTORS
330
2A
102
}
102
{ACAD_XDICTIONARY
360
2C6
102
}
330
2A
100
AcDbVisualStyle
  2
Flat
 70
     0
 71
     2
 72
     1
 73
     1
 90
        2
 40
0.6
 41
30.0
 62
     5
 63
     7
 74
     0
 91
        0
 64
     7
 65
   257
 75
     1
175
     1
 42
1.0
 92
        8
 66
     7
 43
1.0
 76
     1
 77
     6
 78
     2
 67
     7
 79
     5
170
     0
171
     0
290
     0
174
     0
 93
       13
 44
0.0
173
     0
291
     1
 45
0.0
1001
ACAD
1000
AcDbSavedByObjectVersion
1070
     0
  0
VISUALSTYLE
  5
2C
102
{ACAD_REACTORS
330
2A
102
}
102
{ACAD_XDICTIONARY
360
2C8
102
}
330
2A
100
AcDbVisualStyle
  2
FlatWithEdges
 70
     1
 71
     2
 72
     1
 73
     1
 90
        2
 40
0.6
 41
30.0
 62
     5
 63
     7
 74
     1
 91
        0
 64
     7
 65
   257
 75
     1
175
     1
 42
1.0
 92
        0
 66
   257
 43
1.0
 76
     1
 77
     6
 78
     2
 67
     7
 79
     5
170
     0
171
     0
290
     0
174
     0
 93
       13
 44
0.0
173
     0
291
     1
 45
0.0
1001
ACAD
1000
AcDbSavedByObjectVersion
1070
     0
  0
VISUALSTYLE
  5
2D
102
{ACAD_REACTORS
330
2A
102
}
102
{ACAD_XDICTIONARY
360
2CA
102
}
330
2A
100
AcDbVisualStyle
  2
Gouraud
 70
     2
 71
     2
 72
     2
 73
     1
 90
        2
 40
0.6
 41
30.0
 62
     5
 63
     7
 74
     0
 91
        0
 64
     7
 65
   257
 75
     1
175
     1
 42
1.0
 92
        0
 66
     7
 43
1.0
 76
     1
 77
     6
 78
     2
 67
     7
 79
     5
170
     0
171
     0
290
     0
174
     0
 93
       13
 44
0.0
173
     0
291
     1
 45
0.0
1001
ACAD
1000
AcDbSavedByObjectVersion
1070
     0
  0
VISUALSTYLE
  5
2E
102
{ACAD_REACTORS
330
2A
102
}
102
{ACAD_XDICTIONARY
360
2CC
102
}
330
2A
100
AcDbVisualStyle
  2
GouraudWithEdges
 70
     3
 71
     2
 72
     2
 73
     1
 90
        2
 40
0.6
 41
30.0
 62
     5
 63
     7
 74
     1
 91
        0
 64
     7
 65
   257
 75
     1
175
     1
 42
1.0
 92
        0
 66
   257
 43
1.0
 76
     1
 77
     6
 78
     2
 67
     7
 79
     5
170
     0
171
     0
290
     0
174
     0
 93
       13
 44
0.0
173
     0
291
     1
 45
0.0
1001
ACAD
1000
AcDbSavedByObjectVersion
1070
     0
  0
VISUALSTYLE
  5
31
102
{ACAD_REACTORS
330
2A
102
}
102
{ACAD_XDICTIONARY
360
2D2
102
}
330
2A
100
AcDbVisualStyle
  2
Hidden
 70
     6
 71
     1
 72
     2
 73
     2
 90
        0
 40
0.6
 41
30.0
 62
     5
 63
     7
 74
     2
 91
        2
 64
     7
 65
   257
 75
     2
175
     1
 42
40.0
 92
        0
 66
   257
 43
1.0
 76
     1
 77
     6
 78
     2
 67
     7
 79
     3
170
     0
171
     0
290
     0
174
     0
 93
        1
 44
0.0
173
     0
291
     0
 45
0.0
1001
ACAD
1000
AcDbSavedByObjectVersion
1070
     0
  0
VISUALSTYLE
  5
3B
102
{ACAD_REACTORS
330
2A
102
}
102
{ACAD_XDICTIONARY
360
2E6
102
}
330
2A
100
AcDbVisualStyle
  2
JitterOff
 70
    20
 71
     2
 72
     2
 73
     0
 90
        0
 40
0.6
 41
30.0
 62
     5
 63
     7
 74
     1
 91
        4
 64
     7
 65
   257
 75
     1
175
     1
 42
1.0
 92
       10
 66
     7
 43
1.0
 76
     1
 77
     6
 78
     2
 67
     7
 79
     5
170
     0
171
     0
290
     0
174
     0
 93
        1
 44
0.0
173
     0
291
     1
 45
0.0
1001
ACAD
1000
AcDbSavedByObjectVersion
1070
     0
  0
VISUALSTYLE
  5
38
102
{ACAD_REACTORS
330
2A
102
}
102
{ACAD_XDICTIONARY
360
2E0
102
}
330
2A
100
AcDbVisualStyle
  2
Linepattern
 70
    14
 71
     2
 72
     2
 73
     0
 90
        0
 40
0.6
 41
30.0
 62
     5
 63
     7
 74
     1
 91
        4
 64
     7
 65
   257
 75
     7
175
     7
 42
1.0
 92
        8
 66
     7
 43
1.0
 76
     1
 77
     6
 78
     2
 67
     7
 79
     5
170
     0
171
     0
290
     0
174
     0
 93
        1
 44
0.0
173
     0
291
     1
 45
0.0
1001
ACAD
1000
AcDbSavedByObjectVersion
1070
     0
  0
VISUALSTYLE
  5
3C
102
{ACAD_REACTORS
330
2A
102
}
102
{ACAD_XDICTIONARY
360
2E8
102
}
330
2A
100
AcDbVisualStyle
  2
OverhangOff
 70
    21
 71
     2
 72
     2
 73
     0
 90
        0
 40
0.6
 41
30.0
 62
     5
 63
     7
 74
     1
 91
        4
 64
     7
 65
   257
 75
     1
175
     1
 42
1.0
 92
        9
 66
     7
 43
1.0
 76
     1
 77
     6
 78
     2
 67
     7
 79
     5
170
     0
171
     0
290
     0
174
     0
 93
        1
 44
0.0
173
     0
291
     1
 45
0.0
1001
ACAD
1000
AcDbSavedByObjectVersion
1070
     0
  0
VISUALSTYLE
  5
33
102
{ACAD_REACTORS
330
2A
102
}
102
{ACAD_XDICTIONARY
360
2D6
102
}
330
2A
100
AcDbVisualStyle
  2
Realistic
 70
     8
 71
     2
 72
     3
 73
     0
 90
        2
 40
0.6
 41
30.0
 62
     5
 63
     7
 74
     0
 91
        0
 64
     7
 65
   257
 75
     1
175
     1
 42
1.0
 92
        8
 66
   257
 43
1.0
 76
     1
 77
     6
 78
     2
 67
     7
 79
     3
170
     0
171
     0
290
     0
174
     0
 93
       13
 44
0.0
173
     0
291
     0
 45
0.0
1001
ACAD
1000
AcDbSavedByObjectVersion
1070
     0
  0
VISUALSTYLE
  5
42
102
{ACAD_REACTORS
330
2A
102
}
102
{ACAD_XDICTIONARY
360
2F4
102
}
330
2A
100
AcDbVisualStyle
  2
Shaded
 70
    27
 71
     2
 72
     2
 73
     1
 90
        2
 40
0.6
 41
30.0
 62
     5
 63
     7
 74
     0
 91
        4
 64
     7
 65
   257
 75
     1
175
     1
 42
1.0
 92
        8
 66
   257
 43
1.0
 76
     1
 77
     6
 78
     2
 67
     8
 79
     3
170
     0
171
     0
290
     0
174
     0
 93
        5
 44
0.0
173
     0
291
     0
 45
0.0
1001
ACAD
1000
AcDbSavedByObjectVersion
1070
     0
  0
VISUALSTYLE
  5
41
102
{ACAD_REACTORS
330
2A
102
}
102
{ACAD_XDICTIONARY
360
2F2
102
}
330
2A
100
AcDbVisualStyle
  2
Shaded with edges
 70
    26
 71
     2
 72
     2
 73
     1
 90
        2
 40
0.6
 41
30.0
 62
     5
 63
     7
 74
     1
 91
       10
 64
     7
 65
   257
 75
     2
175
     1
 42
1.0
 92
        8
 66
   257
 43
1.0
 76
     1
 77
     6
 78
     2
 67
     7
 79
     3
170
     0
171
     0
290
     0
174
     0
 93
        5
 44
0.0
173
     0
291
     0
 45
0.0
1001
ACAD
1000
AcDbSavedByObjectVersion
1070
     0
  0
VISUALSTYLE
  5
3E
102
{ACAD_REACTORS
330
2A
102
}
102
{ACAD_XDICTIONARY
360
2EC
102
}
330
2A
100
AcDbVisualStyle
  2
Shades of Gray
 70
    23
 71
     2
 72
     2
 73
     3
 90
        0
 40
0.6
 41
30.0
 62
     5
 63
     7
 74
     2
 91
        2
 64
     7
 65
     7
 75
     1
175
     1
 42
40.0
 92
        8
 66
     7
 43
1.0
 76
     1
 77
     6
 78
     2
 67
     7
 79
     3
170
     0
171
     0
290
     0
174
     0
 93
        1
 44
0.0
173
     0
291
     0
 45
0.0
1001
ACAD
1000
AcDbSavedByObjectVersion
1070
     0
  0
VISUALSTYLE
  5
3F
102
{ACAD_REACTORS
330
2A
102
}
102
{ACAD_XDICTIONARY
360
2EE
102
}
330
2A
100
AcDbVisualStyle
  2
Sketchy
 70
    24
 71
     1
 72
     2
 73
     2
 90
        0
 40
0.6
 41
30.0
 62
     5
 63
     7
 74
     2
 91
        2
 64
     7
 65
     7
 75
     1
175
     1
 42
40.0
 92
       11
 66
     7
 43
1.0
 76
     1
 77
     6
 78
     2
 67
     7
 79
     6
170
     0
171
     0
290
     0
174
     0
 93
        1
 44
0.0
173
     0
291
     0
 45
0.0
1001
ACAD
1000
AcDbSavedByObjectVersion
1070
     0
  0
VISUALSTYLE
  5
37
102
{ACAD_REACTORS
330
2A
102
}
102
{ACAD_XDICTIONARY
360
2DE
102
}
330
2A
100
AcDbVisualStyle
  2
Thicken
 70
    13
 71
     2
 72
     2
 73
     0
 90
        0
 40
0.6
 41
30.0
 62
     5
 63
     7
 74
     1
 91
        4
 64
     7
 65
   257
 75
     1
175
     1
 42
1.0
 92
       12
 66
     7
 43
1.0
 76
     1
 77
     6
 78
     2
 67
     7
 79
     5
170
     0
171
     0
290
     0
174
     0
 93
        1
 44
0.0
173
     0
291
     1
 45
0.0
1001
ACAD
1000
AcDbSavedByObjectVersion
1070
     0
  0
VISUALSTYLE
  5
30
102
{ACAD_REACTORS
330
2A
102
}
102
{ACAD_XDICTIONARY
360
2D0
102
}
330
2A
100
AcDbVisualStyle
  2
Wireframe
 70
     5
 71
     0
 72
     2
 73
     0
 90
        0
 40
0.6
 41
30.0
 62
     5
 63
     7
 74
     1
 91
        4
 64
     7
 65
   257
 75
     1
175
     1
 42
1.0
 92
        0
 66
   257
 43
1.0
 76
     1
 77
     6
 78
     2
 67
     7
 79
     3
170
     0
171
     0
290
     0
174
     0
 93
        1
 44
0.0
173
     0
291
     0
 45
0.0
1001
ACAD
1000
AcDbSavedByObjectVersion
1070
     0
  0
VISUALSTYLE
  5
40
102
{ACAD_REACTORS
330
2A
102
}
102
{ACAD_XDICTIONARY
360
2F0
102
}
330
2A
100
AcDbVisualStyle
  2
X-Ray
 70
    25
 71
     2
 72
     2
 73
     1
 90
        1
 40
0.5
 41
30.0
 62
     5
 63
     7
 74
     1
 91
        0
 64
     7
 65
   257
 75
     1
175
     1
 42
1.0
 92
        8
 66
     7
 43
1.0
 76
     1
 77
     6
 78
     2
 67
     7
 79
     3
170
     0
171
     0
290
     0
174
     0
 93
       13
 44
0.0
173
     0
291
     0
 45
0.0
1001
ACAD
1000
AcDbSavedByObjectVersion
1070
     0
  0
DICTIONARYVAR
  5
2C4
102
{ACAD_REACTORS
330
2B8
102
}
330
2B8
100
DictionaryVariables
280
     0
  1
1:1
  0
DICTIONARYVAR
  5
2BA
102
{ACAD_REACTORS
330
2B8
102
}
330
2B8
100
DictionaryVariables
280
     0
  1
Standard
  0
DICTIONARYVAR
  5
2B9
102
{ACAD_REACTORS
330
2B8
102
}
330
2B8
100
DictionaryVariables
280
     0
  1
Standard
  0
DICTIONARYVAR
  5
2BD
102
{ACAD_REACTORS
330
2B8
102
}
330
2B8
100
DictionaryVariables
280
     0
  1
2
  0
DICTIONARYVAR
  5
2BE
102
{ACAD_REACTORS
330
2B8
102
}
330
2B8
100
DictionaryVariables
280
     0
  1
1
  0
DICTIONARYVAR
  5
2C5
102
{ACAD_REACTORS
330
2B8
102
}
330
2B8
100
DictionaryVariables
280
     0
  1
1
  0
DICTIONARY
  5
2F8
330
45
100
AcDbDictionary
280
     1
281
     1
  3
ACAD_XREC_ROUNDTRIP
360
2F9
  0
DICTIONARY
  5
2F6
330
44
100
AcDbDictionary
280
     1
281
     1
  3
ACAD_XREC_ROUNDTRIP
360
2F7
  0
DICTIONARY
  5
2FA
330
46
100
AcDbDictionary
280
     1
281
     1
  3
ACAD_XREC_ROUNDTRIP
360
2FB
  0
DICTIONARY
  5
2FD
330
6C
100
AcDbDictionary
280
     1
281
     1
  3
ACAD_XREC_ROUNDTRIP
360
2FE
  0
DICTIONARY
  5
2CE
330
2F
100
AcDbDictionary
280
     1
281
     1
  3
ACAD_XREC_ROUNDTRIP
360
2CF
  0
DICTIONARY
  5
2D4
330
32
100
AcDbDictionary
280
     1
281
     1
  3
ACAD_XREC_ROUNDTRIP
360
2D5
  0
DICTIONARY
  5
2DC
330
36
100
AcDbDictionary
280
     1
281
     1
  3
ACAD_XREC_ROUNDTRIP
360
2DD
  0
DICTIONARY
  5
2E4
330
3A
100
AcDbDictionary
280
     1
281
     1
  3
ACAD_XREC_ROUNDTRIP
360
2E5
  0
DICTIONARY
  5
2D8
330
34
100
AcDbDictionary
280
     1
281
     1
  3
ACAD_XREC_ROUNDTRIP
360
2D9
  0
DICTIONARY
  5
2DA
330
35
100
AcDbDictionary
280
     1
281
     1
  3
ACAD_XREC_ROUNDTRIP
360
2DB
  0
DICTIONARY
  5
2EA
330
3D
100
AcDbDictionary
280
     1
281
     1
  3
ACAD_XREC_ROUNDTRIP
360
2EB
  0
DICTIONARY
  5
2E2
330
39
100
AcDbDictionary
280
     1
281
     1
  3
ACAD_XREC_ROUNDTRIP
360
2E3
  0
DICTIONARY
  5
2C6
330
2B
100
AcDbDictionary
280
     1
281
     1
  3
ACAD_XREC_ROUNDTRIP
360
2C7
  0
DICTIONARY
  5
2C8
330
2C
100
AcDbDictionary
280
     1
281
     1
  3
ACAD_XREC_ROUNDTRIP
360
2C9
  0
DICTIONARY
  5
2CA
330
2D
100
AcDbDictionary
280
     1
281
     1
  3
ACAD_XREC_ROUNDTRIP
360
2CB
  0
DICTIONARY
  5
2CC
330
2E
100
AcDbDictionary
280
     1
281
     1
  3
ACAD_XREC_ROUNDTRIP
360
2CD
  0
DICTIONARY
  5
2D2
330
31
100
AcDbDictionary
280
     1
281
     1
  3
ACAD_XREC_ROUNDTRIP
360
2D3
  0
DICTIONARY
  5
2E6
330
3B
100
AcDbDictionary
280
     1
281
     1
  3
ACAD_XREC_ROUNDTRIP
360
2E7
  0
DICTIONARY
  5
2E0
330
38
100
AcDbDictionary
280
     1
281
     1
  3
ACAD_XREC_ROUNDTRIP
360
2E1
  0
DICTIONARY
  5
2E8
330
3C
100
AcDbDictionary
280
     1
281
     1
  3
ACAD_XREC_ROUNDTRIP
360
2E9
  0
DICTIONARY
  5
2D6
330
33
100
AcDbDictionary
280
     1
281
     1
  3
ACAD_XREC_ROUNDTRIP
360
2D7
  0
DICTIONARY
  5
2F4
330
42
100
AcDbDictionary
280
     1
281
     1
  3
ACAD_XREC_ROUNDTRIP
360
2F5
  0
DICTIONARY
  5
2F2
330
41
100
AcDbDictionary
280
     1
281
     1
  3
ACAD_XREC_ROUNDTRIP
360
2F3
  0
DICTIONARY
  5
2EC
330
3E
100
AcDbDictionary
280
     1
281
     1
  3
ACAD_XREC_ROUNDTRIP
360
2ED
  0
DICTIONARY
  5
2EE
330
3F
100
AcDbDictionary
280
     1
281
     1
  3
ACAD_XREC_ROUNDTRIP
360
2EF
  0
DICTIONARY
  5
2DE
330
37
100
AcDbDictionary
280
     1
281
     1
  3
ACAD_XREC_ROUNDTRIP
360
2DF
  0
DICTIONARY
  5
2D0
330
30
100
AcDbDictionary
280
     1
281
     1
  3
ACAD_XREC_ROUNDTRIP
360
2D1
  0
DICTIONARY
  5
2F0
330
40
100
AcDbDictionary
280
     1
281
     1
  3
ACAD_XREC_ROUNDTRIP
360
2F1
  0
XRECORD
  5
2F9
102
{ACAD_REACTORS
330
2F8
102
}
330
2F8
100
AcDbXrecord
280
     1
102
MATERIAL
148
0.0
149
0.0
149
0.0
 93
        0
 94
      127
282
     0
 72
     1
 77
     1
171
     1
175
     1
179
     1
273
     0
  0
XRECORD
  5
2F7
102
{ACAD_REACTORS
330
2F6
102
}
330
2F6
100
AcDbXrecord
280
     1
102
MATERIAL
148
0.0
149
0.0
149
0.0
 93
        0
 94
      127
282
     0
 72
     1
 77
     1
171
     1
175
     1
179
     1
273
     0
  0
XRECORD
  5
2FB
102
{ACAD_REACTORS
330
2FA
102
}
330
2FA
100
AcDbXrecord
280
     1
102
MATERIAL
148
0.0
149
0.0
149
0.0
 93
        0
 94
      127
282
     0
 72
     1
 77
     1
171
     1
175
     1
179
     1
273
     0
  0
XRECORD
  5
2FE
102
{ACAD_REACTORS
330
2FD
102
}
330
2FD
100
AcDbXrecord
280
     1
102
ACAD_ROUNDTRIP_2010_MLEADER_STYLE
  0
XRECORD
  5
2CF
102
{ACAD_REACTORS
330
2CE
102
}
330
2CE
100
AcDbXrecord
280
     1
102
RTVSPropertyOp0
 70
     1
102
RTVSPropertyOp1
 70
     1
102
RTVSPropertyOp2
 70
     1
102
RTVSPropertyOp3
 70
     1
102
RTVSPropertyOp4
 70
     1
102
RTVSPropertyOp5
 70
     1
102
RTVSPropertyOp6
 70
     1
102
RTVSPropertyOp7
 70
     1
102
RTVSPropertyOp8
 70
     1
102
RTVSPropertyOp9
 70
     1
102
RTVSPropertyOp10
 70
     1
102
RTVSPropertyOp11
 70
     1
102
RTVSPropertyOp12
 70
     1
102
RTVSPropertyOp13
 70
     1
102
RTVSPropertyOp14
 70
     1
102
RTVSPropertyOp15
 70
     1
102
RTVSPropertyOp16
 70
     1
102
RTVSPropertyOp17
 70
     1
102
RTVSPropertyOp18
 70
     1
102
RTVSPropertyOp19
 70
     1
102
RTVSPropertyOp20
 70
     1
102
RTVSPropertyOp21
 70
     1
102
RTVSPropertyOp22
 70
     1
102
RTVSPropertyOp23
 70
     1
102
RTVSPropertyOp24
 70
     1
102
RTVSPropertyOp25
 70
     1
102
RTVSPropertyOp26
 70
     1
102
RTVSPropertyOp27
 70
     1
102
RTVSPropertyOp28
 70
     1
102
RTVSPropertyOp29
 70
     1
102
RTVSPropertyOp30
 70
     1
102
RTVSPropertyOp31
 70
     1
102
RTVSPropertyOp32
 70
     1
102
RTVSPropertyOp33
 70
     1
102
RTVSPropertyOp34
 70
     1
102
RTVSPropertyOp35
 70
     1
102
RTVSPropertyOp36
 70
     1
102
RTVSPropertyOp37
 70
     1
102
RTVSPropertyOp38
 70
     1
102
RTVSPropertyOp39
 70
     1
102
RTVSPropertyOp40
 70
     1
102
RTVSPropertyOp41
 70
     1
102
RTVSPropertyOp42
 70
     1
102
RTVSPropertyOp43
 70
     1
102
RTVSPropertyOp44
 70
     1
102
RTVSPropertyOp45
 70
     1
102
RTVSPropertyOp46
 70
     1
102
RTVSPropertyOp47
 70
     1
102
RTVSPropertyOp48
 70
     1
102
RTVSPropertyOp49
 70
     1
102
RTVSPropertyOp50
 70
     1
102
RTVSPropertyOp51
 70
     0
102
RTVSPropertyOp52
 70
     0
102
RTVSPropertyOp53
 70
     1
102
RTVSPropertyOp54
 70
     1
102
RTVSPropertyOp55
 70
     1
102
RTVSPropertyOp56
 70
     1
102
RTVSPropertyOp57
 70
     1
102
RTVSPost2010Prop28
280
     1
102
RTVSPost2010PropOp28
 70
     1
102
RTVSPost2010Prop29
280
     1
102
RTVSPost2010PropOp29
 70
     1
102
RTVSPost2010Prop30
280
     0
102
RTVSPost2010PropOp30
 70
     1
102
RTVSPost2010Prop31
280
     0
102
RTVSPost2010PropOp31
 70
     1
102
RTVSPost2010Prop32
280
     0
102
RTVSPost2010PropOp32
 70
     1
102
RTVSPost2010Prop33
280
     0
102
RTVSPost2010PropOp33
 70
     1
102
RTVSPost2010Prop34
280
     0
102
RTVSPost2010PropOp34
 70
     1
102
RTVSPost2010Prop35
280
     0
102
RTVSPost2010PropOp35
 70
     1
102
RTVSPost2010Prop36
280
     0
102
RTVSPost2010PropOp36
 70
     1
102
RTVSPost2010Prop37
 90
       50
102
RTVSPost2010PropOp37
 70
     1
102
RTVSPost2010Prop38
140
0.0
102
RTVSPost2010PropOp38
 70
     1
102
RTVSPost2010Prop39
140
1.0
102
RTVSPost2010PropOp39
 70
     1
102
RTVSPost2010Prop40
 90
        0
102
RTVSPost2010PropOp40
 70
     1
102
RTVSPost2010Prop41ColorIndex
 90
       18
102
RTVSPost2010Prop41ColorRGB
 90
        0
102
RTVSPost2010PropOp41
 70
     1
102
RTVSPost2010Prop42
 90
       50
102
RTVSPost2010PropOp42
 70
     1
102
RTVSPost2010Prop43
 90
        3
102
RTVSPost2010PropOp43
 70
     1
102
RTVSPost2010Prop44ColorIndex
 90
        5
102
RTVSPost2010Prop44ColorRGB
 90
      255
102
RTVSPost2010PropOp44
 70
     1
102
RTVSPost2010Prop45
280
     0
102
RTVSPost2010PropOp45
 70
     1
102
RTVSPost2010Prop46
 90
       50
102
RTVSPost2010PropOp46
 70
     1
102
RTVSPost2010Prop47
 90
       50
102
RTVSPost2010PropOp47
 70
     1
102
RTVSPost2010Prop48
 90
       50
102
RTVSPost2010PropOp48
 70
     1
102
RTVSPost2010Prop49
280
     0
102
RTVSPost2010PropOp49
 70
     1
102
RTVSPost2010Prop50
 90
       50
102
RTVSPost2010PropOp50
 70
     1
102
RTVSPost2010Prop51ColorIndex
 90
      256
102
RTVSPost2010Prop51ColorRGB
 90
-16777216
102
RTVSPost2010PropOp51
 70
     0
102
RTVSPost2010Prop52
140
1.0
102
RTVSPost2010PropOp52
 70
     0
102
RTVSPost2010Prop53
 90
        2
102
RTVSPost2010PropOp53
 70
     1
102
RTVSPost2010Prop54
  1
strokes_ogs.tif
102
RTVSPost2010PropOp54
 70
     1
102
RTVSPost2010Prop55
280
     0
102
RTVSPost2010PropOp55
 70
     1
102
RTVSPost2010Prop56
140
1.0
102
RTVSPost2010PropOp56
 70
     1
102
RTVSPost2010Prop57
140
1.0
102
RTVSPost2010PropOp57
 70
     1
  0
XRECORD
  5
2D5
102
{ACAD_REACTORS
330
2D4
102
}
330
2D4
100
AcDbXrecord
280
     1
102
RTVSPropertyOp0
 70
     1
102
RTVSPropertyOp1
 70
     1
102
RTVSPropertyOp2
 70
     1
102
RTVSPropertyOp3
 70
     1
102
RTVSPropertyOp4
 70
     1
102
RTVSPropertyOp5
 70
     1
102
RTVSPropertyOp6
 70
     1
102
RTVSPropertyOp7
 70
     1
102
RTVSPropertyOp8
 70
     1
102
RTVSPropertyOp9
 70
     1
102
RTVSPropertyOp10
 70
     1
102
RTVSPropertyOp11
 70
     1
102
RTVSPropertyOp12
 70
     1
102
RTVSPropertyOp13
 70
     1
102
RTVSPropertyOp14
 70
     1
102
RTVSPropertyOp15
 70
     1
102
RTVSPropertyOp16
 70
     1
102
RTVSPropertyOp17
 70
     1
102
RTVSPropertyOp18
 70
     1
102
RTVSPropertyOp19
 70
     1
102
RTVSPropertyOp20
 70
     1
102
RTVSPropertyOp21
 70
     1
102
RTVSPropertyOp22
 70
     1
102
RTVSPropertyOp23
 70
     1
102
RTVSPropertyOp24
 70
     1
102
RTVSPropertyOp25
 70
     1
102
RTVSPropertyOp26
 70
     1
102
RTVSPropertyOp27
 70
     1
102
RTVSPropertyOp28
 70
     1
102
RTVSPropertyOp29
 70
     1
102
RTVSPropertyOp30
 70
     1
102
RTVSPropertyOp31
 70
     1
102
RTVSPropertyOp32
 70
     1
102
RTVSPropertyOp33
 70
     1
102
RTVSPropertyOp34
 70
     1
102
RTVSPropertyOp35
 70
     1
102
RTVSPropertyOp36
 70
     1
102
RTVSPropertyOp37
 70
     1
102
RTVSPropertyOp38
 70
     1
102
RTVSPropertyOp39
 70
     1
102
RTVSPropertyOp40
 70
     1
102
RTVSPropertyOp41
 70
     1
102
RTVSPropertyOp42
 70
     1
102
RTVSPropertyOp43
 70
     1
102
RTVSPropertyOp44
 70
     1
102
RTVSPropertyOp45
 70
     1
102
RTVSPropertyOp46
 70
     1
102
RTVSPropertyOp47
 70
     1
102
RTVSPropertyOp48
 70
     1
102
RTVSPropertyOp49
 70
     1
102
RTVSPropertyOp50
 70
     1
102
RTVSPropertyOp51
 70
     0
102
RTVSPropertyOp52
 70
     0
102
RTVSPropertyOp53
 70
     1
102
RTVSPropertyOp54
 70
     1
102
RTVSPropertyOp55
 70
     1
102
RTVSPropertyOp56
 70
     1
102
RTVSPropertyOp57
 70
     1
102
RTVSPost2010Prop28
280
     0
102
RTVSPost2010PropOp28
 70
     1
102
RTVSPost2010Prop29
280
     1
102
RTVSPost2010PropOp29
 70
     1
102
RTVSPost2010Prop30
280
     1
102
RTVSPost2010PropOp30
 70
     1
102
RTVSPost2010Prop31
280
     0
102
RTVSPost2010PropOp31
 70
     1
102
RTVSPost2010Prop32
280
     0
102
RTVSPost2010PropOp32
 70
     1
102
RTVSPost2010Prop33
280
     0
102
RTVSPost2010PropOp33
 70
     1
102
RTVSPost2010Prop34
280
     0
102
RTVSPost2010PropOp34
 70
     1
102
RTVSPost2010Prop35
280
     0
102
RTVSPost2010PropOp35
 70
     1
102
RTVSPost2010Prop36
280
     0
102
RTVSPost2010PropOp36
 70
     1
102
RTVSPost2010Prop37
 90
       50
102
RTVSPost2010PropOp37
 70
     1
102
RTVSPost2010Prop38
140
0.0
102
RTVSPost2010PropOp38
 70
     1
102
RTVSPost2010Prop39
140
1.0
102
RTVSPost2010PropOp39
 70
     1
102
RTVSPost2010Prop40
 90
        0
102
RTVSPost2010PropOp40
 70
     1
102
RTVSPost2010Prop41ColorIndex
 90
       18
102
RTVSPost2010Prop41ColorRGB
 90
        0
102
RTVSPost2010PropOp41
 70
     1
102
RTVSPost2010Prop42
 90
       50
102
RTVSPost2010PropOp42
 70
     1
102
RTVSPost2010Prop43
 90
        3
102
RTVSPost2010PropOp43
 70
     1
102
RTVSPost2010Prop44ColorIndex
 90
        5
102
RTVSPost2010Prop44ColorRGB
 90
      255
102
RTVSPost2010PropOp44
 70
     1
102
RTVSPost2010Prop45
280
     0
102
RTVSPost2010PropOp45
 70
     1
102
RTVSPost2010Prop46
 90
       50
102
RTVSPost2010PropOp46
 70
     1
102
RTVSPost2010Prop47
 90
       50
102
RTVSPost2010PropOp47
 70
     1
102
RTVSPost2010Prop48
 90
       50
102
RTVSPost2010PropOp48
 70
     1
102
RTVSPost2010Prop49
280
     0
102
RTVSPost2010PropOp49
 70
     1
102
RTVSPost2010Prop50
 90
       50
102
RTVSPost2010PropOp50
 70
     1
102
RTVSPost2010Prop51ColorIndex
 90
      256
102
RTVSPost2010Prop51ColorRGB
 90
-16777216
102
RTVSPost2010PropOp51
 70
     0
102
RTVSPost2010Prop52
140
1.0
102
RTVSPost2010PropOp52
 70
     0
102
RTVSPost2010Prop53
 90
        2
102
RTVSPost2010PropOp53
 70
     1
102
RTVSPost2010Prop54
  1
strokes_ogs.tif
102
RTVSPost2010PropOp54
 70
     1
102
RTVSPost2010Prop55
280
     0
102
RTVSPost2010PropOp55
 70
     1
102
RTVSPost2010Prop56
140
1.0
102
RTVSPost2010PropOp56
 70
     1
102
RTVSPost2010Prop57
140
1.0
102
RTVSPost2010PropOp57
 70
     1
  0
XRECORD
  5
2DD
102
{ACAD_REACTORS
330
2DC
102
}
330
2DC
100
AcDbXrecord
280
     1
102
RTVSPropertyOp0
 70
     1
102
RTVSPropertyOp1
 70
     1
102
RTVSPropertyOp2
 70
     1
102
RTVSPropertyOp3
 70
     1
102
RTVSPropertyOp4
 70
     1
102
RTVSPropertyOp5
 70
     1
102
RTVSPropertyOp6
 70
     1
102
RTVSPropertyOp7
 70
     1
102
RTVSPropertyOp8
 70
     1
102
RTVSPropertyOp9
 70
     1
102
RTVSPropertyOp10
 70
     1
102
RTVSPropertyOp11
 70
     1
102
RTVSPropertyOp12
 70
     1
102
RTVSPropertyOp13
 70
     1
102
RTVSPropertyOp14
 70
     1
102
RTVSPropertyOp15
 70
     1
102
RTVSPropertyOp16
 70
     1
102
RTVSPropertyOp17
 70
     1
102
RTVSPropertyOp18
 70
     1
102
RTVSPropertyOp19
 70
     1
102
RTVSPropertyOp20
 70
     1
102
RTVSPropertyOp21
 70
     1
102
RTVSPropertyOp22
 70
     1
102
RTVSPropertyOp23
 70
     1
102
RTVSPropertyOp24
 70
     1
102
RTVSPropertyOp25
 70
     1
102
RTVSPropertyOp26
 70
     1
102
RTVSPropertyOp27
 70
     1
102
RTVSPropertyOp28
 70
     1
102
RTVSPropertyOp29
 70
     1
102
RTVSPropertyOp30
 70
     1
102
RTVSPropertyOp31
 70
     1
102
RTVSPropertyOp32
 70
     1
102
RTVSPropertyOp33
 70
     1
102
RTVSPropertyOp34
 70
     1
102
RTVSPropertyOp35
 70
     1
102
RTVSPropertyOp36
 70
     1
102
RTVSPropertyOp37
 70
     1
102
RTVSPropertyOp38
 70
     1
102
RTVSPropertyOp39
 70
     1
102
RTVSPropertyOp40
 70
     1
102
RTVSPropertyOp41
 70
     1
102
RTVSPropertyOp42
 70
     1
102
RTVSPropertyOp43
 70
     1
102
RTVSPropertyOp44
 70
     1
102
RTVSPropertyOp45
 70
     1
102
RTVSPropertyOp46
 70
     1
102
RTVSPropertyOp47
 70
     1
102
RTVSPropertyOp48
 70
     1
102
RTVSPropertyOp49
 70
     1
102
RTVSPropertyOp50
 70
     1
102
RTVSPropertyOp51
 70
     0
102
RTVSPropertyOp52
 70
     0
102
RTVSPropertyOp53
 70
     1
102
RTVSPropertyOp54
 70
     1
102
RTVSPropertyOp55
 70
     1
102
RTVSPropertyOp56
 70
     1
102
RTVSPropertyOp57
 70
     1
102
RTVSPost2010Prop28
280
     0
102
RTVSPost2010PropOp28
 70
     1
102
RTVSPost2010Prop29
280
     1
102
RTVSPost2010PropOp29
 70
     1
102
RTVSPost2010Prop30
280
     1
102
RTVSPost2010PropOp30
 70
     1
102
RTVSPost2010Prop31
280
     0
102
RTVSPost2010PropOp31
 70
     1
102
RTVSPost2010Prop32
280
     0
102
RTVSPost2010PropOp32
 70
     1
102
RTVSPost2010Prop33
280
     0
102
RTVSPost2010PropOp33
 70
     1
102
RTVSPost2010Prop34
280
     0
102
RTVSPost2010PropOp34
 70
     1
102
RTVSPost2010Prop35
280
     0
102
RTVSPost2010PropOp35
 70
     1
102
RTVSPost2010Prop36
280
     0
102
RTVSPost2010PropOp36
 70
     1
102
RTVSPost2010Prop37
 90
       50
102
RTVSPost2010PropOp37
 70
     1
102
RTVSPost2010Prop38
140
0.0
102
RTVSPost2010PropOp38
 70
     1
102
RTVSPost2010Prop39
140
1.0
102
RTVSPost2010PropOp39
 70
     1
102
RTVSPost2010Prop40
 90
        0
102
RTVSPost2010PropOp40
 70
     1
102
RTVSPost2010Prop41ColorIndex
 90
       18
102
RTVSPost2010Prop41ColorRGB
 90
        0
102
RTVSPost2010PropOp41
 70
     1
102
RTVSPost2010Prop42
 90
       50
102
RTVSPost2010PropOp42
 70
     1
102
RTVSPost2010Prop43
 90
        3
102
RTVSPost2010PropOp43
 70
     1
102
RTVSPost2010Prop44ColorIndex
 90
        5
102
RTVSPost2010Prop44ColorRGB
 90
      255
102
RTVSPost2010PropOp44
 70
     1
102
RTVSPost2010Prop45
280
     0
102
RTVSPost2010PropOp45
 70
     1
102
RTVSPost2010Prop46
 90
       50
102
RTVSPost2010PropOp46
 70
     1
102
RTVSPost2010Prop47
 90
       50
102
RTVSPost2010PropOp47
 70
     1
102
RTVSPost2010Prop48
 90
       50
102
RTVSPost2010PropOp48
 70
     1
102
RTVSPost2010Prop49
280
     0
102
RTVSPost2010PropOp49
 70
     1
102
RTVSPost2010Prop50
 90
       50
102
RTVSPost2010PropOp50
 70
     1
102
RTVSPost2010Prop51ColorIndex
 90
      256
102
RTVSPost2010Prop51ColorRGB
 90
-16777216
102
RTVSPost2010PropOp51
 70
     0
102
RTVSPost2010Prop52
140
1.0
102
RTVSPost2010PropOp52
 70
     0
102
RTVSPost2010Prop53
 90
        2
102
RTVSPost2010PropOp53
 70
     1
102
RTVSPost2010Prop54
  1
strokes_ogs.tif
102
RTVSPost2010PropOp54
 70
     1
102
RTVSPost2010Prop55
280
     0
102
RTVSPost2010PropOp55
 70
     1
102
RTVSPost2010Prop56
140
1.0
102
RTVSPost2010PropOp56
 70
     1
102
RTVSPost2010Prop57
140
1.0
102
RTVSPost2010PropOp57
 70
     1
  0
XRECORD
  5
2E5
102
{ACAD_REACTORS
330
2E4
102
}
330
2E4
100
AcDbXrecord
280
     1
102
RTVSPropertyOp0
 70
     1
102
RTVSPropertyOp1
 70
     1
102
RTVSPropertyOp2
 70
     1
102
RTVSPropertyOp3
 70
     1
102
RTVSPropertyOp4
 70
     1
102
RTVSPropertyOp5
 70
     1
102
RTVSPropertyOp6
 70
     1
102
RTVSPropertyOp7
 70
     1
102
RTVSPropertyOp8
 70
     1
102
RTVSPropertyOp9
 70
     1
102
RTVSPropertyOp10
 70
     1
102
RTVSPropertyOp11
 70
     1
102
RTVSPropertyOp12
 70
     1
102
RTVSPropertyOp13
 70
     1
102
RTVSPropertyOp14
 70
     1
102
RTVSPropertyOp15
 70
     1
102
RTVSPropertyOp16
 70
     1
102
RTVSPropertyOp17
 70
     1
102
RTVSPropertyOp18
 70
     1
102
RTVSPropertyOp19
 70
     1
102
RTVSPropertyOp20
 70
     1
102
RTVSPropertyOp21
 70
     1
102
RTVSPropertyOp22
 70
     1
102
RTVSPropertyOp23
 70
     1
102
RTVSPropertyOp24
 70
     1
102
RTVSPropertyOp25
 70
     1
102
RTVSPropertyOp26
 70
     1
102
RTVSPropertyOp27
 70
     1
102
RTVSPropertyOp28
 70
     1
102
RTVSPropertyOp29
 70
     1
102
RTVSPropertyOp30
 70
     1
102
RTVSPropertyOp31
 70
     1
102
RTVSPropertyOp32
 70
     1
102
RTVSPropertyOp33
 70
     1
102
RTVSPropertyOp34
 70
     1
102
RTVSPropertyOp35
 70
     1
102
RTVSPropertyOp36
 70
     1
102
RTVSPropertyOp37
 70
     1
102
RTVSPropertyOp38
 70
     1
102
RTVSPropertyOp39
 70
     1
102
RTVSPropertyOp40
 70
     1
102
RTVSPropertyOp41
 70
     1
102
RTVSPropertyOp42
 70
     1
102
RTVSPropertyOp43
 70
     1
102
RTVSPropertyOp44
 70
     1
102
RTVSPropertyOp45
 70
     1
102
RTVSPropertyOp46
 70
     1
102
RTVSPropertyOp47
 70
     1
102
RTVSPropertyOp48
 70
     1
102
RTVSPropertyOp49
 70
     1
102
RTVSPropertyOp50
 70
     1
102
RTVSPropertyOp51
 70
     0
102
RTVSPropertyOp52
 70
     0
102
RTVSPropertyOp53
 70
     1
102
RTVSPropertyOp54
 70
     1
102
RTVSPropertyOp55
 70
     1
102
RTVSPropertyOp56
 70
     1
102
RTVSPropertyOp57
 70
     1
102
RTVSPost2010Prop28
280
     0
102
RTVSPost2010PropOp28
 70
     1
102
RTVSPost2010Prop29
280
     1
102
RTVSPost2010PropOp29
 70
     1
102
RTVSPost2010Prop30
280
     1
102
RTVSPost2010PropOp30
 70
     1
102
RTVSPost2010Prop31
280
     0
102
RTVSPost2010PropOp31
 70
     1
102
RTVSPost2010Prop32
280
     0
102
RTVSPost2010PropOp32
 70
     1
102
RTVSPost2010Prop33
280
     0
102
RTVSPost2010PropOp33
 70
     1
102
RTVSPost2010Prop34
280
     0
102
RTVSPost2010PropOp34
 70
     1
102
RTVSPost2010Prop35
280
     0
102
RTVSPost2010PropOp35
 70
     1
102
RTVSPost2010Prop36
280
     0
102
RTVSPost2010PropOp36
 70
     1
102
RTVSPost2010Prop37
 90
       50
102
RTVSPost2010PropOp37
 70
     1
102
RTVSPost2010Prop38
140
0.0
102
RTVSPost2010PropOp38
 70
     1
102
RTVSPost2010Prop39
140
1.0
102
RTVSPost2010PropOp39
 70
     1
102
RTVSPost2010Prop40
 90
        0
102
RTVSPost2010PropOp40
 70
     1
102
RTVSPost2010Prop41ColorIndex
 90
       18
102
RTVSPost2010Prop41ColorRGB
 90
        0
102
RTVSPost2010PropOp41
 70
     1
102
RTVSPost2010Prop42
 90
       50
102
RTVSPost2010PropOp42
 70
     1
102
RTVSPost2010Prop43
 90
        3
102
RTVSPost2010PropOp43
 70
     1
102
RTVSPost2010Prop44ColorIndex
 90
        5
102
RTVSPost2010Prop44ColorRGB
 90
      255
102
RTVSPost2010PropOp44
 70
     1
102
RTVSPost2010Prop45
280
     0
102
RTVSPost2010PropOp45
 70
     1
102
RTVSPost2010Prop46
 90
       50
102
RTVSPost2010PropOp46
 70
     1
102
RTVSPost2010Prop47
 90
       50
102
RTVSPost2010PropOp47
 70
     1
102
RTVSPost2010Prop48
 90
       50
102
RTVSPost2010PropOp48
 70
     1
102
RTVSPost2010Prop49
280
     0
102
RTVSPost2010PropOp49
 70
     1
102
RTVSPost2010Prop50
 90
       50
102
RTVSPost2010PropOp50
 70
     1
102
RTVSPost2010Prop51ColorIndex
 90
      256
102
RTVSPost2010Prop51ColorRGB
 90
-16777216
102
RTVSPost2010PropOp51
 70
     0
102
RTVSPost2010Prop52
140
1.0
102
RTVSPost2010PropOp52
 70
     0
102
RTVSPost2010Prop53
 90
        2
102
RTVSPost2010PropOp53
 70
     1
102
RTVSPost2010Prop54
  1
strokes_ogs.tif
102
RTVSPost2010PropOp54
 70
     1
102
RTVSPost2010Prop55
280
     0
102
RTVSPost2010PropOp55
 70
     1
102
RTVSPost2010Prop56
140
1.0
102
RTVSPost2010PropOp56
 70
     1
102
RTVSPost2010Prop57
140
1.0
102
RTVSPost2010PropOp57
 70
     1
  0
XRECORD
  5
2D9
102
{ACAD_REACTORS
330
2D8
102
}
330
2D8
100
AcDbXrecord
280
     1
102
RTVSPropertyOp0
 70
     1
102
RTVSPropertyOp1
 70
     1
102
RTVSPropertyOp2
 70
     1
102
RTVSPropertyOp3
 70
     1
102
RTVSPropertyOp4
 70
     1
102
RTVSPropertyOp5
 70
     1
102
RTVSPropertyOp6
 70
     1
102
RTVSPropertyOp7
 70
     1
102
RTVSPropertyOp8
 70
     1
102
RTVSPropertyOp9
 70
     1
102
RTVSPropertyOp10
 70
     1
102
RTVSPropertyOp11
 70
     1
102
RTVSPropertyOp12
 70
     1
102
RTVSPropertyOp13
 70
     1
102
RTVSPropertyOp14
 70
     1
102
RTVSPropertyOp15
 70
     1
102
RTVSPropertyOp16
 70
     1
102
RTVSPropertyOp17
 70
     1
102
RTVSPropertyOp18
 70
     1
102
RTVSPropertyOp19
 70
     1
102
RTVSPropertyOp20
 70
     1
102
RTVSPropertyOp21
 70
     1
102
RTVSPropertyOp22
 70
     1
102
RTVSPropertyOp23
 70
     1
102
RTVSPropertyOp24
 70
     1
102
RTVSPropertyOp25
 70
     1
102
RTVSPropertyOp26
 70
     1
102
RTVSPropertyOp27
 70
     1
102
RTVSPropertyOp28
 70
     1
102
RTVSPropertyOp29
 70
     1
102
RTVSPropertyOp30
 70
     1
102
RTVSPropertyOp31
 70
     1
102
RTVSPropertyOp32
 70
     1
102
RTVSPropertyOp33
 70
     1
102
RTVSPropertyOp34
 70
     1
102
RTVSPropertyOp35
 70
     1
102
RTVSPropertyOp36
 70
     1
102
RTVSPropertyOp37
 70
     1
102
RTVSPropertyOp38
 70
     1
102
RTVSPropertyOp39
 70
     1
102
RTVSPropertyOp40
 70
     1
102
RTVSPropertyOp41
 70
     1
102
RTVSPropertyOp42
 70
     1
102
RTVSPropertyOp43
 70
     1
102
RTVSPropertyOp44
 70
     1
102
RTVSPropertyOp45
 70
     1
102
RTVSPropertyOp46
 70
     1
102
RTVSPropertyOp47
 70
     1
102
RTVSPropertyOp48
 70
     1
102
RTVSPropertyOp49
 70
     1
102
RTVSPropertyOp50
 70
     1
102
RTVSPropertyOp51
 70
     0
102
RTVSPropertyOp52
 70
     0
102
RTVSPropertyOp53
 70
     1
102
RTVSPropertyOp54
 70
     1
102
RTVSPropertyOp55
 70
     1
102
RTVSPropertyOp56
 70
     1
102
RTVSPropertyOp57
 70
     1
102
RTVSPost2010Prop28
280
     0
102
RTVSPost2010PropOp28
 70
     1
102
RTVSPost2010Prop29
280
     1
102
RTVSPost2010PropOp29
 70
     1
102
RTVSPost2010Prop30
280
     1
102
RTVSPost2010PropOp30
 70
     1
102
RTVSPost2010Prop31
280
     0
102
RTVSPost2010PropOp31
 70
     1
102
RTVSPost2010Prop32
280
     0
102
RTVSPost2010PropOp32
 70
     1
102
RTVSPost2010Prop33
280
     0
102
RTVSPost2010PropOp33
 70
     1
102
RTVSPost2010Prop34
280
     0
102
RTVSPost2010PropOp34
 70
     1
102
RTVSPost2010Prop35
280
     0
102
RTVSPost2010PropOp35
 70
     1
102
RTVSPost2010Prop36
280
     0
102
RTVSPost2010PropOp36
 70
     1
102
RTVSPost2010Prop37
 90
       50
102
RTVSPost2010PropOp37
 70
     1
102
RTVSPost2010Prop38
140
0.0
102
RTVSPost2010PropOp38
 70
     1
102
RTVSPost2010Prop39
140
1.0
102
RTVSPost2010PropOp39
 70
     1
102
RTVSPost2010Prop40
 90
        0
102
RTVSPost2010PropOp40
 70
     1
102
RTVSPost2010Prop41ColorIndex
 90
       18
102
RTVSPost2010Prop41ColorRGB
 90
        0
102
RTVSPost2010PropOp41
 70
     1
102
RTVSPost2010Prop42
 90
       50
102
RTVSPost2010PropOp42
 70
     1
102
RTVSPost2010Prop43
 90
        3
102
RTVSPost2010PropOp43
 70
     1
102
RTVSPost2010Prop44ColorIndex
 90
        5
102
RTVSPost2010Prop44ColorRGB
 90
      255
102
RTVSPost2010PropOp44
 70
     1
102
RTVSPost2010Prop45
280
     0
102
RTVSPost2010PropOp45
 70
     1
102
RTVSPost2010Prop46
 90
       50
102
RTVSPost2010PropOp46
 70
     1
102
RTVSPost2010Prop47
 90
       50
102
RTVSPost2010PropOp47
 70
     1
102
RTVSPost2010Prop48
 90
       50
102
RTVSPost2010PropOp48
 70
     1
102
RTVSPost2010Prop49
280
     0
102
RTVSPost2010PropOp49
 70
     1
102
RTVSPost2010Prop50
 90
       50
102
RTVSPost2010PropOp50
 70
     1
102
RTVSPost2010Prop51ColorIndex
 90
      256
102
RTVSPost2010Prop51ColorRGB
 90
-16777216
102
RTVSPost2010PropOp51
 70
     0
102
RTVSPost2010Prop52
140
1.0
102
RTVSPost2010PropOp52
 70
     0
102
RTVSPost2010Prop53
 90
        2
102
RTVSPost2010PropOp53
 70
     1
102
RTVSPost2010Prop54
  1
strokes_ogs.tif
102
RTVSPost2010PropOp54
 70
     1
102
RTVSPost2010Prop55
280
     0
102
RTVSPost2010PropOp55
 70
     1
102
RTVSPost2010Prop56
140
1.0
102
RTVSPost2010PropOp56
 70
     1
102
RTVSPost2010Prop57
140
1.0
102
RTVSPost2010PropOp57
 70
     1
  0
XRECORD
  5
2DB
102
{ACAD_REACTORS
330
2DA
102
}
330
2DA
100
AcDbXrecord
280
     1
102
RTVSPropertyOp0
 70
     1
102
RTVSPropertyOp1
 70
     1
102
RTVSPropertyOp2
 70
     1
102
RTVSPropertyOp3
 70
     1
102
RTVSPropertyOp4
 70
     1
102
RTVSPropertyOp5
 70
     1
102
RTVSPropertyOp6
 70
     1
102
RTVSPropertyOp7
 70
     1
102
RTVSPropertyOp8
 70
     1
102
RTVSPropertyOp9
 70
     1
102
RTVSPropertyOp10
 70
     1
102
RTVSPropertyOp11
 70
     1
102
RTVSPropertyOp12
 70
     1
102
RTVSPropertyOp13
 70
     1
102
RTVSPropertyOp14
 70
     1
102
RTVSPropertyOp15
 70
     1
102
RTVSPropertyOp16
 70
     1
102
RTVSPropertyOp17
 70
     1
102
RTVSPropertyOp18
 70
     1
102
RTVSPropertyOp19
 70
     1
102
RTVSPropertyOp20
 70
     1
102
RTVSPropertyOp21
 70
     1
102
RTVSPropertyOp22
 70
     1
102
RTVSPropertyOp23
 70
     1
102
RTVSPropertyOp24
 70
     1
102
RTVSPropertyOp25
 70
     1
102
RTVSPropertyOp26
 70
     1
102
RTVSPropertyOp27
 70
     1
102
RTVSPropertyOp28
 70
     1
102
RTVSPropertyOp29
 70
     1
102
RTVSPropertyOp30
 70
     1
102
RTVSPropertyOp31
 70
     1
102
RTVSPropertyOp32
 70
     1
102
RTVSPropertyOp33
 70
     1
102
RTVSPropertyOp34
 70
     1
102
RTVSPropertyOp35
 70
     1
102
RTVSPropertyOp36
 70
     1
102
RTVSPropertyOp37
 70
     1
102
RTVSPropertyOp38
 70
     1
102
RTVSPropertyOp39
 70
     1
102
RTVSPropertyOp40
 70
     1
102
RTVSPropertyOp41
 70
     1
102
RTVSPropertyOp42
 70
     1
102
RTVSPropertyOp43
 70
     1
102
RTVSPropertyOp44
 70
     1
102
RTVSPropertyOp45
 70
     1
102
RTVSPropertyOp46
 70
     1
102
RTVSPropertyOp47
 70
     1
102
RTVSPropertyOp48
 70
     1
102
RTVSPropertyOp49
 70
     1
102
RTVSPropertyOp50
 70
     1
102
RTVSPropertyOp51
 70
     0
102
RTVSPropertyOp52
 70
     0
102
RTVSPropertyOp53
 70
     1
102
RTVSPropertyOp54
 70
     1
102
RTVSPropertyOp55
 70
     1
102
RTVSPropertyOp56
 70
     1
102
RTVSPropertyOp57
 70
     1
102
RTVSPost2010Prop28
280
     0
102
RTVSPost2010PropOp28
 70
     1
102
RTVSPost2010Prop29
280
     1
102
RTVSPost2010PropOp29
 70
     1
102
RTVSPost2010Prop30
280
     1
102
RTVSPost2010PropOp30
 70
     1
102
RTVSPost2010Prop31
280
     0
102
RTVSPost2010PropOp31
 70
     1
102
RTVSPost2010Prop32
280
     0
102
RTVSPost2010PropOp32
 70
     1
102
RTVSPost2010Prop33
280
     0
102
RTVSPost2010PropOp33
 70
     1
102
RTVSPost2010Prop34
280
     0
102
RTVSPost2010PropOp34
 70
     1
102
RTVSPost2010Prop35
280
     0
102
RTVSPost2010PropOp35
 70
     1
102
RTVSPost2010Prop36
280
     0
102
RTVSPost2010PropOp36
 70
     1
102
RTVSPost2010Prop37
 90
       50
102
RTVSPost2010PropOp37
 70
     1
102
RTVSPost2010Prop38
140
0.0
102
RTVSPost2010PropOp38
 70
     1
102
RTVSPost2010Prop39
140
1.0
102
RTVSPost2010PropOp39
 70
     1
102
RTVSPost2010Prop40
 90
        0
102
RTVSPost2010PropOp40
 70
     1
102
RTVSPost2010Prop41ColorIndex
 90
       18
102
RTVSPost2010Prop41ColorRGB
 90
        0
102
RTVSPost2010PropOp41
 70
     1
102
RTVSPost2010Prop42
 90
       50
102
RTVSPost2010PropOp42
 70
     1
102
RTVSPost2010Prop43
 90
        3
102
RTVSPost2010PropOp43
 70
     1
102
RTVSPost2010Prop44ColorIndex
 90
        5
102
RTVSPost2010Prop44ColorRGB
 90
      255
102
RTVSPost2010PropOp44
 70
     1
102
RTVSPost2010Prop45
280
     0
102
RTVSPost2010PropOp45
 70
     1
102
RTVSPost2010Prop46
 90
       50
102
RTVSPost2010PropOp46
 70
     1
102
RTVSPost2010Prop47
 90
       50
102
RTVSPost2010PropOp47
 70
     1
102
RTVSPost2010Prop48
 90
       50
102
RTVSPost2010PropOp48
 70
     1
102
RTVSPost2010Prop49
280
     0
102
RTVSPost2010PropOp49
 70
     1
102
RTVSPost2010Prop50
 90
       50
102
RTVSPost2010PropOp50
 70
     1
102
RTVSPost2010Prop51ColorIndex
 90
      256
102
RTVSPost2010Prop51ColorRGB
 90
-16777216
102
RTVSPost2010PropOp51
 70
     0
102
RTVSPost2010Prop52
140
1.0
102
RTVSPost2010PropOp52
 70
     0
102
RTVSPost2010Prop53
 90
        2
102
RTVSPost2010PropOp53
 70
     1
102
RTVSPost2010Prop54
  1
strokes_ogs.tif
102
RTVSPost2010PropOp54
 70
     1
102
RTVSPost2010Prop55
280
     0
102
RTVSPost2010PropOp55
 70
     1
102
RTVSPost2010Prop56
140
1.0
102
RTVSPost2010PropOp56
 70
     1
102
RTVSPost2010Prop57
140
1.0
102
RTVSPost2010PropOp57
 70
     1
  0
XRECORD
  5
2EB
102
{ACAD_REACTORS
330
2EA
102
}
330
2EA
100
AcDbXrecord
280
     1
102
RTVSPropertyOp0
 70
     0
102
RTVSPropertyOp1
 70
     0
102
RTVSPropertyOp2
 70
     0
102
RTVSPropertyOp3
 70
     0
102
RTVSPropertyOp4
 70
     0
102
RTVSPropertyOp5
 70
     0
102
RTVSPropertyOp6
 70
     0
102
RTVSPropertyOp7
 70
     0
102
RTVSPropertyOp8
 70
     0
102
RTVSPropertyOp9
 70
     0
102
RTVSPropertyOp10
 70
     0
102
RTVSPropertyOp11
 70
     0
102
RTVSPropertyOp12
 70
     0
102
RTVSPropertyOp13
 70
     0
102
RTVSPropertyOp14
 70
     2
102
RTVSPropertyOp15
 70
     0
102
RTVSPropertyOp16
 70
     0
102
RTVSPropertyOp17
 70
     0
102
RTVSPropertyOp18
 70
     0
102
RTVSPropertyOp19
 70
     0
102
RTVSPropertyOp20
 70
     0
102
RTVSPropertyOp21
 70
     0
102
RTVSPropertyOp22
 70
     0
102
RTVSPropertyOp23
 70
     0
102
RTVSPropertyOp24
 70
     0
102
RTVSPropertyOp25
 70
     0
102
RTVSPropertyOp26
 70
     0
102
RTVSPropertyOp27
 70
     0
102
RTVSPropertyOp28
 70
     0
102
RTVSPropertyOp29
 70
     0
102
RTVSPropertyOp30
 70
     0
102
RTVSPropertyOp31
 70
     0
102
RTVSPropertyOp32
 70
     0
102
RTVSPropertyOp33
 70
     0
102
RTVSPropertyOp34
 70
     0
102
RTVSPropertyOp35
 70
     0
102
RTVSPropertyOp36
 70
     0
102
RTVSPropertyOp37
 70
     0
102
RTVSPropertyOp38
 70
     0
102
RTVSPropertyOp39
 70
     0
102
RTVSPropertyOp40
 70
     0
102
RTVSPropertyOp41
 70
     0
102
RTVSPropertyOp42
 70
     0
102
RTVSPropertyOp43
 70
     0
102
RTVSPropertyOp44
 70
     0
102
RTVSPropertyOp45
 70
     0
102
RTVSPropertyOp46
 70
     0
102
RTVSPropertyOp47
 70
     0
102
RTVSPropertyOp48
 70
     0
102
RTVSPropertyOp49
 70
     0
102
RTVSPropertyOp50
 70
     0
102
RTVSPropertyOp51
 70
     0
102
RTVSPropertyOp52
 70
     0
102
RTVSPropertyOp53
 70
     0
102
RTVSPropertyOp54
 70
     0
102
RTVSPropertyOp55
 70
     0
102
RTVSPropertyOp56
 70
     0
102
RTVSPropertyOp57
 70
     0
102
RTVSPost2010Prop28
280
     0
102
RTVSPost2010PropOp28
 70
     0
102
RTVSPost2010Prop29
280
     1
102
RTVSPost2010PropOp29
 70
     0
102
RTVSPost2010Prop30
280
     1
102
RTVSPost2010PropOp30
 70
     0
102
RTVSPost2010Prop31
280
     0
102
RTVSPost2010PropOp31
 70
     0
102
RTVSPost2010Prop32
280
     0
102
RTVSPost2010PropOp32
 70
     0
102
RTVSPost2010Prop33
280
     0
102
RTVSPost2010PropOp33
 70
     0
102
RTVSPost2010Prop34
280
     0
102
RTVSPost2010PropOp34
 70
     0
102
RTVSPost2010Prop35
280
     0
102
RTVSPost2010PropOp35
 70
     0
102
RTVSPost2010Prop36
280
     0
102
RTVSPost2010PropOp36
 70
     0
102
RTVSPost2010Prop37
 90
       50
102
RTVSPost2010PropOp37
 70
     0
102
RTVSPost2010Prop38
140
0.0
102
RTVSPost2010PropOp38
 70
     0
102
RTVSPost2010Prop39
140
1.0
102
RTVSPost2010PropOp39
 70
     0
102
RTVSPost2010Prop40
 90
        0
102
RTVSPost2010PropOp40
 70
     0
102
RTVSPost2010Prop41ColorIndex
 90
       18
102
RTVSPost2010Prop41ColorRGB
 90
        0
102
RTVSPost2010PropOp41
 70
     0
102
RTVSPost2010Prop42
 90
       50
102
RTVSPost2010PropOp42
 70
     0
102
RTVSPost2010Prop43
 90
        3
102
RTVSPost2010PropOp43
 70
     0
102
RTVSPost2010Prop44ColorIndex
 90
        5
102
RTVSPost2010Prop44ColorRGB
 90
      255
102
RTVSPost2010PropOp44
 70
     0
102
RTVSPost2010Prop45
280
     0
102
RTVSPost2010PropOp45
 70
     0
102
RTVSPost2010Prop46
 90
       50
102
RTVSPost2010PropOp46
 70
     0
102
RTVSPost2010Prop47
 90
       50
102
RTVSPost2010PropOp47
 70
     0
102
RTVSPost2010Prop48
 90
       50
102
RTVSPost2010PropOp48
 70
     0
102
RTVSPost2010Prop49
280
     0
102
RTVSPost2010PropOp49
 70
     0
102
RTVSPost2010Prop50
 90
       50
102
RTVSPost2010PropOp50
 70
     0
102
RTVSPost2010Prop51ColorIndex
 90
      256
102
RTVSPost2010Prop51ColorRGB
 90
-16777216
102
RTVSPost2010PropOp51
 70
     0
102
RTVSPost2010Prop52
140
1.0
102
RTVSPost2010PropOp52
 70
     0
102
RTVSPost2010Prop53
 90
        2
102
RTVSPost2010PropOp53
 70
     0
102
RTVSPost2010Prop54
  1
strokes_ogs.tif
102
RTVSPost2010PropOp54
 70
     0
102
RTVSPost2010Prop55
280
     0
102
RTVSPost2010PropOp55
 70
     0
102
RTVSPost2010Prop56
140
1.0
102
RTVSPost2010PropOp56
 70
     0
102
RTVSPost2010Prop57
140
1.0
102
RTVSPost2010PropOp57
 70
     0
  0
XRECORD
  5
2E3
102
{ACAD_REACTORS
330
2E2
102
}
330
2E2
100
AcDbXrecord
280
     1
102
RTVSPropertyOp0
 70
     1
102
RTVSPropertyOp1
 70
     1
102
RTVSPropertyOp2
 70
     1
102
RTVSPropertyOp3
 70
     1
102
RTVSPropertyOp4
 70
     1
102
RTVSPropertyOp5
 70
     1
102
RTVSPropertyOp6
 70
     1
102
RTVSPropertyOp7
 70
     1
102
RTVSPropertyOp8
 70
     1
102
RTVSPropertyOp9
 70
     1
102
RTVSPropertyOp10
 70
     1
102
RTVSPropertyOp11
 70
     1
102
RTVSPropertyOp12
 70
     1
102
RTVSPropertyOp13
 70
     1
102
RTVSPropertyOp14
 70
     1
102
RTVSPropertyOp15
 70
     1
102
RTVSPropertyOp16
 70
     1
102
RTVSPropertyOp17
 70
     1
102
RTVSPropertyOp18
 70
     1
102
RTVSPropertyOp19
 70
     1
102
RTVSPropertyOp20
 70
     1
102
RTVSPropertyOp21
 70
     1
102
RTVSPropertyOp22
 70
     1
102
RTVSPropertyOp23
 70
     1
102
RTVSPropertyOp24
 70
     1
102
RTVSPropertyOp25
 70
     1
102
RTVSPropertyOp26
 70
     1
102
RTVSPropertyOp27
 70
     1
102
RTVSPropertyOp28
 70
     1
102
RTVSPropertyOp29
 70
     1
102
RTVSPropertyOp30
 70
     1
102
RTVSPropertyOp31
 70
     1
102
RTVSPropertyOp32
 70
     1
102
RTVSPropertyOp33
 70
     1
102
RTVSPropertyOp34
 70
     1
102
RTVSPropertyOp35
 70
     1
102
RTVSPropertyOp36
 70
     1
102
RTVSPropertyOp37
 70
     1
102
RTVSPropertyOp38
 70
     1
102
RTVSPropertyOp39
 70
     1
102
RTVSPropertyOp40
 70
     1
102
RTVSPropertyOp41
 70
     1
102
RTVSPropertyOp42
 70
     1
102
RTVSPropertyOp43
 70
     1
102
RTVSPropertyOp44
 70
     1
102
RTVSPropertyOp45
 70
     1
102
RTVSPropertyOp46
 70
     1
102
RTVSPropertyOp47
 70
     1
102
RTVSPropertyOp48
 70
     1
102
RTVSPropertyOp49
 70
     1
102
RTVSPropertyOp50
 70
     1
102
RTVSPropertyOp51
 70
     0
102
RTVSPropertyOp52
 70
     0
102
RTVSPropertyOp53
 70
     1
102
RTVSPropertyOp54
 70
     1
102
RTVSPropertyOp55
 70
     1
102
RTVSPropertyOp56
 70
     1
102
RTVSPropertyOp57
 70
     1
102
RTVSPost2010Prop28
280
     0
102
RTVSPost2010PropOp28
 70
     1
102
RTVSPost2010Prop29
280
     1
102
RTVSPost2010PropOp29
 70
     1
102
RTVSPost2010Prop30
280
     1
102
RTVSPost2010PropOp30
 70
     1
102
RTVSPost2010Prop31
280
     0
102
RTVSPost2010PropOp31
 70
     1
102
RTVSPost2010Prop32
280
     0
102
RTVSPost2010PropOp32
 70
     1
102
RTVSPost2010Prop33
280
     0
102
RTVSPost2010PropOp33
 70
     1
102
RTVSPost2010Prop34
280
     0
102
RTVSPost2010PropOp34
 70
     1
102
RTVSPost2010Prop35
280
     0
102
RTVSPost2010PropOp35
 70
     1
102
RTVSPost2010Prop36
280
     0
102
RTVSPost2010PropOp36
 70
     1
102
RTVSPost2010Prop37
 90
       50
102
RTVSPost2010PropOp37
 70
     1
102
RTVSPost2010Prop38
140
0.0
102
RTVSPost2010PropOp38
 70
     1
102
RTVSPost2010Prop39
140
1.0
102
RTVSPost2010PropOp39
 70
     1
102
RTVSPost2010Prop40
 90
        0
102
RTVSPost2010PropOp40
 70
     1
102
RTVSPost2010Prop41ColorIndex
 90
       18
102
RTVSPost2010Prop41ColorRGB
 90
        0
102
RTVSPost2010PropOp41
 70
     1
102
RTVSPost2010Prop42
 90
       50
102
RTVSPost2010PropOp42
 70
     1
102
RTVSPost2010Prop43
 90
        3
102
RTVSPost2010PropOp43
 70
     1
102
RTVSPost2010Prop44ColorIndex
 90
        5
102
RTVSPost2010Prop44ColorRGB
 90
      255
102
RTVSPost2010PropOp44
 70
     1
102
RTVSPost2010Prop45
280
     0
102
RTVSPost2010PropOp45
 70
     1
102
RTVSPost2010Prop46
 90
       50
102
RTVSPost2010PropOp46
 70
     1
102
RTVSPost2010Prop47
 90
       50
102
RTVSPost2010PropOp47
 70
     1
102
RTVSPost2010Prop48
 90
       50
102
RTVSPost2010PropOp48
 70
     1
102
RTVSPost2010Prop49
280
     0
102
RTVSPost2010PropOp49
 70
     1
102
RTVSPost2010Prop50
 90
       50
102
RTVSPost2010PropOp50
 70
     1
102
RTVSPost2010Prop51ColorIndex
 90
      256
102
RTVSPost2010Prop51ColorRGB
 90
-16777216
102
RTVSPost2010PropOp51
 70
     0
102
RTVSPost2010Prop52
140
1.0
102
RTVSPost2010PropOp52
 70
     0
102
RTVSPost2010Prop53
 90
        2
102
RTVSPost2010PropOp53
 70
     1
102
RTVSPost2010Prop54
  1
strokes_ogs.tif
102
RTVSPost2010PropOp54
 70
     1
102
RTVSPost2010Prop55
280
     0
102
RTVSPost2010PropOp55
 70
     1
102
RTVSPost2010Prop56
140
1.0
102
RTVSPost2010PropOp56
 70
     1
102
RTVSPost2010Prop57
140
1.0
102
RTVSPost2010PropOp57
 70
     1
  0
XRECORD
  5
2C7
102
{ACAD_REACTORS
330
2C6
102
}
330
2C6
100
AcDbXrecord
280
     1
102
RTVSPropertyOp0
 70
     1
102
RTVSPropertyOp1
 70
     1
102
RTVSPropertyOp2
 70
     1
102
RTVSPropertyOp3
 70
     1
102
RTVSPropertyOp4
 70
     1
102
RTVSPropertyOp5
 70
     1
102
RTVSPropertyOp6
 70
     1
102
RTVSPropertyOp7
 70
     1
102
RTVSPropertyOp8
 70
     1
102
RTVSPropertyOp9
 70
     1
102
RTVSPropertyOp10
 70
     1
102
RTVSPropertyOp11
 70
     1
102
RTVSPropertyOp12
 70
     1
102
RTVSPropertyOp13
 70
     1
102
RTVSPropertyOp14
 70
     1
102
RTVSPropertyOp15
 70
     1
102
RTVSPropertyOp16
 70
     1
102
RTVSPropertyOp17
 70
     1
102
RTVSPropertyOp18
 70
     1
102
RTVSPropertyOp19
 70
     1
102
RTVSPropertyOp20
 70
     1
102
RTVSPropertyOp21
 70
     1
102
RTVSPropertyOp22
 70
     1
102
RTVSPropertyOp23
 70
     1
102
RTVSPropertyOp24
 70
     1
102
RTVSPropertyOp25
 70
     1
102
RTVSPropertyOp26
 70
     1
102
RTVSPropertyOp27
 70
     1
102
RTVSPropertyOp28
 70
     1
102
RTVSPropertyOp29
 70
     1
102
RTVSPropertyOp30
 70
     1
102
RTVSPropertyOp31
 70
     1
102
RTVSPropertyOp32
 70
     1
102
RTVSPropertyOp33
 70
     1
102
RTVSPropertyOp34
 70
     1
102
RTVSPropertyOp35
 70
     1
102
RTVSPropertyOp36
 70
     1
102
RTVSPropertyOp37
 70
     1
102
RTVSPropertyOp38
 70
     1
102
RTVSPropertyOp39
 70
     1
102
RTVSPropertyOp40
 70
     1
102
RTVSPropertyOp41
 70
     1
102
RTVSPropertyOp42
 70
     1
102
RTVSPropertyOp43
 70
     1
102
RTVSPropertyOp44
 70
     1
102
RTVSPropertyOp45
 70
     1
102
RTVSPropertyOp46
 70
     1
102
RTVSPropertyOp47
 70
     1
102
RTVSPropertyOp48
 70
     1
102
RTVSPropertyOp49
 70
     1
102
RTVSPropertyOp50
 70
     1
102
RTVSPropertyOp51
 70
     0
102
RTVSPropertyOp52
 70
     0
102
RTVSPropertyOp53
 70
     1
102
RTVSPropertyOp54
 70
     1
102
RTVSPropertyOp55
 70
     1
102
RTVSPropertyOp56
 70
     1
102
RTVSPropertyOp57
 70
     1
102
RTVSPost2010Prop28
280
     0
102
RTVSPost2010PropOp28
 70
     1
102
RTVSPost2010Prop29
280
     1
102
RTVSPost2010PropOp29
 70
     1
102
RTVSPost2010Prop30
280
     1
102
RTVSPost2010PropOp30
 70
     1
102
RTVSPost2010Prop31
280
     0
102
RTVSPost2010PropOp31
 70
     1
102
RTVSPost2010Prop32
280
     0
102
RTVSPost2010PropOp32
 70
     1
102
RTVSPost2010Prop33
280
     0
102
RTVSPost2010PropOp33
 70
     1
102
RTVSPost2010Prop34
280
     0
102
RTVSPost2010PropOp34
 70
     1
102
RTVSPost2010Prop35
280
     0
102
RTVSPost2010PropOp35
 70
     1
102
RTVSPost2010Prop36
280
     0
102
RTVSPost2010PropOp36
 70
     1
102
RTVSPost2010Prop37
 90
       50
102
RTVSPost2010PropOp37
 70
     1
102
RTVSPost2010Prop38
140
0.0
102
RTVSPost2010PropOp38
 70
     1
102
RTVSPost2010Prop39
140
1.0
102
RTVSPost2010PropOp39
 70
     1
102
RTVSPost2010Prop40
 90
        0
102
RTVSPost2010PropOp40
 70
     1
102
RTVSPost2010Prop41ColorIndex
 90
       18
102
RTVSPost2010Prop41ColorRGB
 90
        0
102
RTVSPost2010PropOp41
 70
     1
102
RTVSPost2010Prop42
 90
       50
102
RTVSPost2010PropOp42
 70
     1
102
RTVSPost2010Prop43
 90
        3
102
RTVSPost2010PropOp43
 70
     1
102
RTVSPost2010Prop44ColorIndex
 90
        5
102
RTVSPost2010Prop44ColorRGB
 90
      255
102
RTVSPost2010PropOp44
 70
     1
102
RTVSPost2010Prop45
280
     0
102
RTVSPost2010PropOp45
 70
     1
102
RTVSPost2010Prop46
 90
       50
102
RTVSPost2010PropOp46
 70
     1
102
RTVSPost2010Prop47
 90
       50
102
RTVSPost2010PropOp47
 70
     1
102
RTVSPost2010Prop48
 90
       50
102
RTVSPost2010PropOp48
 70
     1
102
RTVSPost2010Prop49
280
     0
102
RTVSPost2010PropOp49
 70
     1
102
RTVSPost2010Prop50
 90
       50
102
RTVSPost2010PropOp50
 70
     1
102
RTVSPost2010Prop51ColorIndex
 90
      256
102
RTVSPost2010Prop51ColorRGB
 90
-16777216
102
RTVSPost2010PropOp51
 70
     0
102
RTVSPost2010Prop52
140
1.0
102
RTVSPost2010PropOp52
 70
     0
102
RTVSPost2010Prop53
 90
        2
102
RTVSPost2010PropOp53
 70
     1
102
RTVSPost2010Prop54
  1
strokes_ogs.tif
102
RTVSPost2010PropOp54
 70
     1
102
RTVSPost2010Prop55
280
     0
102
RTVSPost2010PropOp55
 70
     1
102
RTVSPost2010Prop56
140
1.0
102
RTVSPost2010PropOp56
 70
     1
102
RTVSPost2010Prop57
140
1.0
102
RTVSPost2010PropOp57
 70
     1
  0
XRECORD
  5
2C9
102
{ACAD_REACTORS
330
2C8
102
}
330
2C8
100
AcDbXrecord
280
     1
102
RTVSPropertyOp0
 70
     1
102
RTVSPropertyOp1
 70
     1
102
RTVSPropertyOp2
 70
     1
102
RTVSPropertyOp3
 70
     1
102
RTVSPropertyOp4
 70
     1
102
RTVSPropertyOp5
 70
     1
102
RTVSPropertyOp6
 70
     1
102
RTVSPropertyOp7
 70
     1
102
RTVSPropertyOp8
 70
     1
102
RTVSPropertyOp9
 70
     1
102
RTVSPropertyOp10
 70
     1
102
RTVSPropertyOp11
 70
     1
102
RTVSPropertyOp12
 70
     1
102
RTVSPropertyOp13
 70
     1
102
RTVSPropertyOp14
 70
     1
102
RTVSPropertyOp15
 70
     1
102
RTVSPropertyOp16
 70
     1
102
RTVSPropertyOp17
 70
     1
102
RTVSPropertyOp18
 70
     1
102
RTVSPropertyOp19
 70
     1
102
RTVSPropertyOp20
 70
     1
102
RTVSPropertyOp21
 70
     1
102
RTVSPropertyOp22
 70
     1
102
RTVSPropertyOp23
 70
     1
102
RTVSPropertyOp24
 70
     1
102
RTVSPropertyOp25
 70
     1
102
RTVSPropertyOp26
 70
     1
102
RTVSPropertyOp27
 70
     1
102
RTVSPropertyOp28
 70
     1
102
RTVSPropertyOp29
 70
     1
102
RTVSPropertyOp30
 70
     1
102
RTVSPropertyOp31
 70
     1
102
RTVSPropertyOp32
 70
     1
102
RTVSPropertyOp33
 70
     1
102
RTVSPropertyOp34
 70
     1
102
RTVSPropertyOp35
 70
     1
102
RTVSPropertyOp36
 70
     1
102
RTVSPropertyOp37
 70
     1
102
RTVSPropertyOp38
 70
     1
102
RTVSPropertyOp39
 70
     1
102
RTVSPropertyOp40
 70
     1
102
RTVSPropertyOp41
 70
     1
102
RTVSPropertyOp42
 70
     1
102
RTVSPropertyOp43
 70
     1
102
RTVSPropertyOp44
 70
     1
102
RTVSPropertyOp45
 70
     1
102
RTVSPropertyOp46
 70
     1
102
RTVSPropertyOp47
 70
     1
102
RTVSPropertyOp48
 70
     1
102
RTVSPropertyOp49
 70
     1
102
RTVSPropertyOp50
 70
     1
102
RTVSPropertyOp51
 70
     0
102
RTVSPropertyOp52
 70
     0
102
RTVSPropertyOp53
 70
     1
102
RTVSPropertyOp54
 70
     1
102
RTVSPropertyOp55
 70
     1
102
RTVSPropertyOp56
 70
     1
102
RTVSPropertyOp57
 70
     1
102
RTVSPost2010Prop28
280
     0
102
RTVSPost2010PropOp28
 70
     1
102
RTVSPost2010Prop29
280
     1
102
RTVSPost2010PropOp29
 70
     1
102
RTVSPost2010Prop30
280
     1
102
RTVSPost2010PropOp30
 70
     1
102
RTVSPost2010Prop31
280
     0
102
RTVSPost2010PropOp31
 70
     1
102
RTVSPost2010Prop32
280
     0
102
RTVSPost2010PropOp32
 70
     1
102
RTVSPost2010Prop33
280
     0
102
RTVSPost2010PropOp33
 70
     1
102
RTVSPost2010Prop34
280
     0
102
RTVSPost2010PropOp34
 70
     1
102
RTVSPost2010Prop35
280
     0
102
RTVSPost2010PropOp35
 70
     1
102
RTVSPost2010Prop36
280
     0
102
RTVSPost2010PropOp36
 70
     1
102
RTVSPost2010Prop37
 90
       50
102
RTVSPost2010PropOp37
 70
     1
102
RTVSPost2010Prop38
140
0.0
102
RTVSPost2010PropOp38
 70
     1
102
RTVSPost2010Prop39
140
1.0
102
RTVSPost2010PropOp39
 70
     1
102
RTVSPost2010Prop40
 90
        0
102
RTVSPost2010PropOp40
 70
     1
102
RTVSPost2010Prop41ColorIndex
 90
       18
102
RTVSPost2010Prop41ColorRGB
 90
        0
102
RTVSPost2010PropOp41
 70
     1
102
RTVSPost2010Prop42
 90
       50
102
RTVSPost2010PropOp42
 70
     1
102
RTVSPost2010Prop43
 90
        3
102
RTVSPost2010PropOp43
 70
     1
102
RTVSPost2010Prop44ColorIndex
 90
        5
102
RTVSPost2010Prop44ColorRGB
 90
      255
102
RTVSPost2010PropOp44
 70
     1
102
RTVSPost2010Prop45
280
     0
102
RTVSPost2010PropOp45
 70
     1
102
RTVSPost2010Prop46
 90
       50
102
RTVSPost2010PropOp46
 70
     1
102
RTVSPost2010Prop47
 90
       50
102
RTVSPost2010PropOp47
 70
     1
102
RTVSPost2010Prop48
 90
       50
102
RTVSPost2010PropOp48
 70
     1
102
RTVSPost2010Prop49
280
     0
102
RTVSPost2010PropOp49
 70
     1
102
RTVSPost2010Prop50
 90
       50
102
RTVSPost2010PropOp50
 70
     1
102
RTVSPost2010Prop51ColorIndex
 90
      256
102
RTVSPost2010Prop51ColorRGB
 90
-16777216
102
RTVSPost2010PropOp51
 70
     0
102
RTVSPost2010Prop52
140
1.0
102
RTVSPost2010PropOp52
 70
     0
102
RTVSPost2010Prop53
 90
        2
102
RTVSPost2010PropOp53
 70
     1
102
RTVSPost2010Prop54
  1
strokes_ogs.tif
102
RTVSPost2010PropOp54
 70
     1
102
RTVSPost2010Prop55
280
     0
102
RTVSPost2010PropOp55
 70
     1
102
RTVSPost2010Prop56
140
1.0
102
RTVSPost2010PropOp56
 70
     1
102
RTVSPost2010Prop57
140
1.0
102
RTVSPost2010PropOp57
 70
     1
  0
XRECORD
  5
2CB
102
{ACAD_REACTORS
330
2CA
102
}
330
2CA
100
AcDbXrecord
280
     1
102
RTVSPropertyOp0
 70
     1
102
RTVSPropertyOp1
 70
     1
102
RTVSPropertyOp2
 70
     1
102
RTVSPropertyOp3
 70
     1
102
RTVSPropertyOp4
 70
     1
102
RTVSPropertyOp5
 70
     1
102
RTVSPropertyOp6
 70
     1
102
RTVSPropertyOp7
 70
     1
102
RTVSPropertyOp8
 70
     1
102
RTVSPropertyOp9
 70
     1
102
RTVSPropertyOp10
 70
     1
102
RTVSPropertyOp11
 70
     1
102
RTVSPropertyOp12
 70
     1
102
RTVSPropertyOp13
 70
     1
102
RTVSPropertyOp14
 70
     1
102
RTVSPropertyOp15
 70
     1
102
RTVSPropertyOp16
 70
     1
102
RTVSPropertyOp17
 70
     1
102
RTVSPropertyOp18
 70
     1
102
RTVSPropertyOp19
 70
     1
102
RTVSPropertyOp20
 70
     1
102
RTVSPropertyOp21
 70
     1
102
RTVSPropertyOp22
 70
     1
102
RTVSPropertyOp23
 70
     1
102
RTVSPropertyOp24
 70
     1
102
RTVSPropertyOp25
 70
     1
102
RTVSPropertyOp26
 70
     1
102
RTVSPropertyOp27
 70
     1
102
RTVSPropertyOp28
 70
     1
102
RTVSPropertyOp29
 70
     1
102
RTVSPropertyOp30
 70
     1
102
RTVSPropertyOp31
 70
     1
102
RTVSPropertyOp32
 70
     1
102
RTVSPropertyOp33
 70
     1
102
RTVSPropertyOp34
 70
     1
102
RTVSPropertyOp35
 70
     1
102
RTVSPropertyOp36
 70
     1
102
RTVSPropertyOp37
 70
     1
102
RTVSPropertyOp38
 70
     1
102
RTVSPropertyOp39
 70
     1
102
RTVSPropertyOp40
 70
     1
102
RTVSPropertyOp41
 70
     1
102
RTVSPropertyOp42
 70
     1
102
RTVSPropertyOp43
 70
     1
102
RTVSPropertyOp44
 70
     1
102
RTVSPropertyOp45
 70
     1
102
RTVSPropertyOp46
 70
     1
102
RTVSPropertyOp47
 70
     1
102
RTVSPropertyOp48
 70
     1
102
RTVSPropertyOp49
 70
     1
102
RTVSPropertyOp50
 70
     1
102
RTVSPropertyOp51
 70
     0
102
RTVSPropertyOp52
 70
     0
102
RTVSPropertyOp53
 70
     1
102
RTVSPropertyOp54
 70
     1
102
RTVSPropertyOp55
 70
     1
102
RTVSPropertyOp56
 70
     1
102
RTVSPropertyOp57
 70
     1
102
RTVSPost2010Prop28
280
     0
102
RTVSPost2010PropOp28
 70
     1
102
RTVSPost2010Prop29
280
     1
102
RTVSPost2010PropOp29
 70
     1
102
RTVSPost2010Prop30
280
     1
102
RTVSPost2010PropOp30
 70
     1
102
RTVSPost2010Prop31
280
     0
102
RTVSPost2010PropOp31
 70
     1
102
RTVSPost2010Prop32
280
     0
102
RTVSPost2010PropOp32
 70
     1
102
RTVSPost2010Prop33
280
     0
102
RTVSPost2010PropOp33
 70
     1
102
RTVSPost2010Prop34
280
     0
102
RTVSPost2010PropOp34
 70
     1
102
RTVSPost2010Prop35
280
     0
102
RTVSPost2010PropOp35
 70
     1
102
RTVSPost2010Prop36
280
     0
102
RTVSPost2010PropOp36
 70
     1
102
RTVSPost2010Prop37
 90
       50
102
RTVSPost2010PropOp37
 70
     1
102
RTVSPost2010Prop38
140
0.0
102
RTVSPost2010PropOp38
 70
     1
102
RTVSPost2010Prop39
140
1.0
102
RTVSPost2010PropOp39
 70
     1
102
RTVSPost2010Prop40
 90
        0
102
RTVSPost2010PropOp40
 70
     1
102
RTVSPost2010Prop41ColorIndex
 90
       18
102
RTVSPost2010Prop41ColorRGB
 90
        0
102
RTVSPost2010PropOp41
 70
     1
102
RTVSPost2010Prop42
 90
       50
102
RTVSPost2010PropOp42
 70
     1
102
RTVSPost2010Prop43
 90
        3
102
RTVSPost2010PropOp43
 70
     1
102
RTVSPost2010Prop44ColorIndex
 90
        5
102
RTVSPost2010Prop44ColorRGB
 90
      255
102
RTVSPost2010PropOp44
 70
     1
102
RTVSPost2010Prop45
280
     0
102
RTVSPost2010PropOp45
 70
     1
102
RTVSPost2010Prop46
 90
       50
102
RTVSPost2010PropOp46
 70
     1
102
RTVSPost2010Prop47
 90
       50
102
RTVSPost2010PropOp47
 70
     1
102
RTVSPost2010Prop48
 90
       50
102
RTVSPost2010PropOp48
 70
     1
102
RTVSPost2010Prop49
280
     0
102
RTVSPost2010PropOp49
 70
     1
102
RTVSPost2010Prop50
 90
       50
102
RTVSPost2010PropOp50
 70
     1
102
RTVSPost2010Prop51ColorIndex
 90
      256
102
RTVSPost2010Prop51ColorRGB
 90
-16777216
102
RTVSPost2010PropOp51
 70
     0
102
RTVSPost2010Prop52
140
1.0
102
RTVSPost2010PropOp52
 70
     0
102
RTVSPost2010Prop53
 90
        2
102
RTVSPost2010PropOp53
 70
     1
102
RTVSPost2010Prop54
  1
strokes_ogs.tif
102
RTVSPost2010PropOp54
 70
     1
102
RTVSPost2010Prop55
280
     0
102
RTVSPost2010PropOp55
 70
     1
102
RTVSPost2010Prop56
140
1.0
102
RTVSPost2010PropOp56
 70
     1
102
RTVSPost2010Prop57
140
1.0
102
RTVSPost2010PropOp57
 70
     1
  0
XRECORD
  5
2CD
102
{ACAD_REACTORS
330
2CC
102
}
330
2CC
100
AcDbXrecord
280
     1
102
RTVSPropertyOp0
 70
     1
102
RTVSPropertyOp1
 70
     1
102
RTVSPropertyOp2
 70
     1
102
RTVSPropertyOp3
 70
     1
102
RTVSPropertyOp4
 70
     1
102
RTVSPropertyOp5
 70
     1
102
RTVSPropertyOp6
 70
     1
102
RTVSPropertyOp7
 70
     1
102
RTVSPropertyOp8
 70
     1
102
RTVSPropertyOp9
 70
     1
102
RTVSPropertyOp10
 70
     1
102
RTVSPropertyOp11
 70
     1
102
RTVSPropertyOp12
 70
     1
102
RTVSPropertyOp13
 70
     1
102
RTVSPropertyOp14
 70
     1
102
RTVSPropertyOp15
 70
     1
102
RTVSPropertyOp16
 70
     1
102
RTVSPropertyOp17
 70
     1
102
RTVSPropertyOp18
 70
     1
102
RTVSPropertyOp19
 70
     1
102
RTVSPropertyOp20
 70
     1
102
RTVSPropertyOp21
 70
     1
102
RTVSPropertyOp22
 70
     1
102
RTVSPropertyOp23
 70
     1
102
RTVSPropertyOp24
 70
     1
102
RTVSPropertyOp25
 70
     1
102
RTVSPropertyOp26
 70
     1
102
RTVSPropertyOp27
 70
     1
102
RTVSPropertyOp28
 70
     1
102
RTVSPropertyOp29
 70
     1
102
RTVSPropertyOp30
 70
     1
102
RTVSPropertyOp31
 70
     1
102
RTVSPropertyOp32
 70
     1
102
RTVSPropertyOp33
 70
     1
102
RTVSPropertyOp34
 70
     1
102
RTVSPropertyOp35
 70
     1
102
RTVSPropertyOp36
 70
     1
102
RTVSPropertyOp37
 70
     1
102
RTVSPropertyOp38
 70
     1
102
RTVSPropertyOp39
 70
     1
102
RTVSPropertyOp40
 70
     1
102
RTVSPropertyOp41
 70
     1
102
RTVSPropertyOp42
 70
     1
102
RTVSPropertyOp43
 70
     1
102
RTVSPropertyOp44
 70
     1
102
RTVSPropertyOp45
 70
     1
102
RTVSPropertyOp46
 70
     1
102
RTVSPropertyOp47
 70
     1
102
RTVSPropertyOp48
 70
     1
102
RTVSPropertyOp49
 70
     1
102
RTVSPropertyOp50
 70
     1
102
RTVSPropertyOp51
 70
     0
102
RTVSPropertyOp52
 70
     0
102
RTVSPropertyOp53
 70
     1
102
RTVSPropertyOp54
 70
     1
102
RTVSPropertyOp55
 70
     1
102
RTVSPropertyOp56
 70
     1
102
RTVSPropertyOp57
 70
     1
102
RTVSPost2010Prop28
280
     0
102
RTVSPost2010PropOp28
 70
     1
102
RTVSPost2010Prop29
280
     1
102
RTVSPost2010PropOp29
 70
     1
102
RTVSPost2010Prop30
280
     1
102
RTVSPost2010PropOp30
 70
     1
102
RTVSPost2010Prop31
280
     0
102
RTVSPost2010PropOp31
 70
     1
102
RTVSPost2010Prop32
280
     0
102
RTVSPost2010PropOp32
 70
     1
102
RTVSPost2010Prop33
280
     0
102
RTVSPost2010PropOp33
 70
     1
102
RTVSPost2010Prop34
280
     0
102
RTVSPost2010PropOp34
 70
     1
102
RTVSPost2010Prop35
280
     0
102
RTVSPost2010PropOp35
 70
     1
102
RTVSPost2010Prop36
280
     0
102
RTVSPost2010PropOp36
 70
     1
102
RTVSPost2010Prop37
 90
       50
102
RTVSPost2010PropOp37
 70
     1
102
RTVSPost2010Prop38
140
0.0
102
RTVSPost2010PropOp38
 70
     1
102
RTVSPost2010Prop39
140
1.0
102
RTVSPost2010PropOp39
 70
     1
102
RTVSPost2010Prop40
 90
        0
102
RTVSPost2010PropOp40
 70
     1
102
RTVSPost2010Prop41ColorIndex
 90
       18
102
RTVSPost2010Prop41ColorRGB
 90
        0
102
RTVSPost2010PropOp41
 70
     1
102
RTVSPost2010Prop42
 90
       50
102
RTVSPost2010PropOp42
 70
     1
102
RTVSPost2010Prop43
 90
        3
102
RTVSPost2010PropOp43
 70
     1
102
RTVSPost2010Prop44ColorIndex
 90
        5
102
RTVSPost2010Prop44ColorRGB
 90
      255
102
RTVSPost2010PropOp44
 70
     1
102
RTVSPost2010Prop45
280
     0
102
RTVSPost2010PropOp45
 70
     1
102
RTVSPost2010Prop46
 90
       50
102
RTVSPost2010PropOp46
 70
     1
102
RTVSPost2010Prop47
 90
       50
102
RTVSPost2010PropOp47
 70
     1
102
RTVSPost2010Prop48
 90
       50
102
RTVSPost2010PropOp48
 70
     1
102
RTVSPost2010Prop49
280
     0
102
RTVSPost2010PropOp49
 70
     1
102
RTVSPost2010Prop50
 90
       50
102
RTVSPost2010PropOp50
 70
     1
102
RTVSPost2010Prop51ColorIndex
 90
      256
102
RTVSPost2010Prop51ColorRGB
 90
-16777216
102
RTVSPost2010PropOp51
 70
     0
102
RTVSPost2010Prop52
140
1.0
102
RTVSPost2010PropOp52
 70
     0
102
RTVSPost2010Prop53
 90
        2
102
RTVSPost2010PropOp53
 70
     1
102
RTVSPost2010Prop54
  1
strokes_ogs.tif
102
RTVSPost2010PropOp54
 70
     1
102
RTVSPost2010Prop55
280
     0
102
RTVSPost2010PropOp55
 70
     1
102
RTVSPost2010Prop56
140
1.0
102
RTVSPost2010PropOp56
 70
     1
102
RTVSPost2010Prop57
140
1.0
102
RTVSPost2010PropOp57
 70
     1
  0
XRECORD
  5
2D3
102
{ACAD_REACTORS
330
2D2
102
}
330
2D2
100
AcDbXrecord
280
     1
102
RTVSPropertyOp0
 70
     1
102
RTVSPropertyOp1
 70
     1
102
RTVSPropertyOp2
 70
     1
102
RTVSPropertyOp3
 70
     1
102
RTVSPropertyOp4
 70
     1
102
RTVSPropertyOp5
 70
     1
102
RTVSPropertyOp6
 70
     1
102
RTVSPropertyOp7
 70
     1
102
RTVSPropertyOp8
 70
     1
102
RTVSPropertyOp9
 70
     1
102
RTVSPropertyOp10
 70
     1
102
RTVSPropertyOp11
 70
     1
102
RTVSPropertyOp12
 70
     1
102
RTVSPropertyOp13
 70
     1
102
RTVSPropertyOp14
 70
     1
102
RTVSPropertyOp15
 70
     1
102
RTVSPropertyOp16
 70
     1
102
RTVSPropertyOp17
 70
     1
102
RTVSPropertyOp18
 70
     1
102
RTVSPropertyOp19
 70
     1
102
RTVSPropertyOp20
 70
     1
102
RTVSPropertyOp21
 70
     1
102
RTVSPropertyOp22
 70
     1
102
RTVSPropertyOp23
 70
     1
102
RTVSPropertyOp24
 70
     1
102
RTVSPropertyOp25
 70
     1
102
RTVSPropertyOp26
 70
     1
102
RTVSPropertyOp27
 70
     1
102
RTVSPropertyOp28
 70
     1
102
RTVSPropertyOp29
 70
     1
102
RTVSPropertyOp30
 70
     1
102
RTVSPropertyOp31
 70
     1
102
RTVSPropertyOp32
 70
     1
102
RTVSPropertyOp33
 70
     1
102
RTVSPropertyOp34
 70
     1
102
RTVSPropertyOp35
 70
     1
102
RTVSPropertyOp36
 70
     1
102
RTVSPropertyOp37
 70
     1
102
RTVSPropertyOp38
 70
     1
102
RTVSPropertyOp39
 70
     1
102
RTVSPropertyOp40
 70
     1
102
RTVSPropertyOp41
 70
     1
102
RTVSPropertyOp42
 70
     1
102
RTVSPropertyOp43
 70
     1
102
RTVSPropertyOp44
 70
     1
102
RTVSPropertyOp45
 70
     1
102
RTVSPropertyOp46
 70
     1
102
RTVSPropertyOp47
 70
     1
102
RTVSPropertyOp48
 70
     1
102
RTVSPropertyOp49
 70
     1
102
RTVSPropertyOp50
 70
     1
102
RTVSPropertyOp51
 70
     0
102
RTVSPropertyOp52
 70
     0
102
RTVSPropertyOp53
 70
     1
102
RTVSPropertyOp54
 70
     1
102
RTVSPropertyOp55
 70
     1
102
RTVSPropertyOp56
 70
     1
102
RTVSPropertyOp57
 70
     1
102
RTVSPost2010Prop28
280
     0
102
RTVSPost2010PropOp28
 70
     1
102
RTVSPost2010Prop29
280
     1
102
RTVSPost2010PropOp29
 70
     1
102
RTVSPost2010Prop30
280
     1
102
RTVSPost2010PropOp30
 70
     1
102
RTVSPost2010Prop31
280
     0
102
RTVSPost2010PropOp31
 70
     1
102
RTVSPost2010Prop32
280
     0
102
RTVSPost2010PropOp32
 70
     1
102
RTVSPost2010Prop33
280
     0
102
RTVSPost2010PropOp33
 70
     1
102
RTVSPost2010Prop34
280
     0
102
RTVSPost2010PropOp34
 70
     1
102
RTVSPost2010Prop35
280
     0
102
RTVSPost2010PropOp35
 70
     1
102
RTVSPost2010Prop36
280
     0
102
RTVSPost2010PropOp36
 70
     1
102
RTVSPost2010Prop37
 90
       50
102
RTVSPost2010PropOp37
 70
     1
102
RTVSPost2010Prop38
140
0.0
102
RTVSPost2010PropOp38
 70
     1
102
RTVSPost2010Prop39
140
1.0
102
RTVSPost2010PropOp39
 70
     1
102
RTVSPost2010Prop40
 90
        0
102
RTVSPost2010PropOp40
 70
     1
102
RTVSPost2010Prop41ColorIndex
 90
       18
102
RTVSPost2010Prop41ColorRGB
 90
        0
102
RTVSPost2010PropOp41
 70
     1
102
RTVSPost2010Prop42
 90
       50
102
RTVSPost2010PropOp42
 70
     1
102
RTVSPost2010Prop43
 90
        3
102
RTVSPost2010PropOp43
 70
     1
102
RTVSPost2010Prop44ColorIndex
 90
        5
102
RTVSPost2010Prop44ColorRGB
 90
      255
102
RTVSPost2010PropOp44
 70
     1
102
RTVSPost2010Prop45
280
     0
102
RTVSPost2010PropOp45
 70
     1
102
RTVSPost2010Prop46
 90
       50
102
RTVSPost2010PropOp46
 70
     1
102
RTVSPost2010Prop47
 90
       50
102
RTVSPost2010PropOp47
 70
     1
102
RTVSPost2010Prop48
 90
       50
102
RTVSPost2010PropOp48
 70
     1
102
RTVSPost2010Prop49
280
     0
102
RTVSPost2010PropOp49
 70
     1
102
RTVSPost2010Prop50
 90
       50
102
RTVSPost2010PropOp50
 70
     1
102
RTVSPost2010Prop51ColorIndex
 90
      256
102
RTVSPost2010Prop51ColorRGB
 90
-16777216
102
RTVSPost2010PropOp51
 70
     0
102
RTVSPost2010Prop52
140
1.0
102
RTVSPost2010PropOp52
 70
     0
102
RTVSPost2010Prop53
 90
        2
102
RTVSPost2010PropOp53
 70
     1
102
RTVSPost2010Prop54
  1
strokes_ogs.tif
102
RTVSPost2010PropOp54
 70
     1
102
RTVSPost2010Prop55
280
     0
102
RTVSPost2010PropOp55
 70
     1
102
RTVSPost2010Prop56
140
1.0
102
RTVSPost2010PropOp56
 70
     1
102
RTVSPost2010Prop57
140
1.0
102
RTVSPost2010PropOp57
 70
     1
  0
XRECORD
  5
2E7
102
{ACAD_REACTORS
330
2E6
102
}
330
2E6
100
AcDbXrecord
280
     1
102
RTVSPropertyOp0
 70
     0
102
RTVSPropertyOp1
 70
     0
102
RTVSPropertyOp2
 70
     0
102
RTVSPropertyOp3
 70
     0
102
RTVSPropertyOp4
 70
     0
102
RTVSPropertyOp5
 70
     0
102
RTVSPropertyOp6
 70
     0
102
RTVSPropertyOp7
 70
     0
102
RTVSPropertyOp8
 70
     0
102
RTVSPropertyOp9
 70
     0
102
RTVSPropertyOp10
 70
     0
102
RTVSPropertyOp11
 70
     0
102
RTVSPropertyOp12
 70
     0
102
RTVSPropertyOp13
 70
     0
102
RTVSPropertyOp14
 70
     2
102
RTVSPropertyOp15
 70
     0
102
RTVSPropertyOp16
 70
     0
102
RTVSPropertyOp17
 70
     0
102
RTVSPropertyOp18
 70
     0
102
RTVSPropertyOp19
 70
     0
102
RTVSPropertyOp20
 70
     0
102
RTVSPropertyOp21
 70
     0
102
RTVSPropertyOp22
 70
     0
102
RTVSPropertyOp23
 70
     0
102
RTVSPropertyOp24
 70
     0
102
RTVSPropertyOp25
 70
     0
102
RTVSPropertyOp26
 70
     0
102
RTVSPropertyOp27
 70
     0
102
RTVSPropertyOp28
 70
     0
102
RTVSPropertyOp29
 70
     0
102
RTVSPropertyOp30
 70
     0
102
RTVSPropertyOp31
 70
     0
102
RTVSPropertyOp32
 70
     0
102
RTVSPropertyOp33
 70
     0
102
RTVSPropertyOp34
 70
     0
102
RTVSPropertyOp35
 70
     0
102
RTVSPropertyOp36
 70
     0
102
RTVSPropertyOp37
 70
     0
102
RTVSPropertyOp38
 70
     0
102
RTVSPropertyOp39
 70
     0
102
RTVSPropertyOp40
 70
     0
102
RTVSPropertyOp41
 70
     0
102
RTVSPropertyOp42
 70
     0
102
RTVSPropertyOp43
 70
     0
102
RTVSPropertyOp44
 70
     0
102
RTVSPropertyOp45
 70
     0
102
RTVSPropertyOp46
 70
     0
102
RTVSPropertyOp47
 70
     0
102
RTVSPropertyOp48
 70
     0
102
RTVSPropertyOp49
 70
     0
102
RTVSPropertyOp50
 70
     0
102
RTVSPropertyOp51
 70
     0
102
RTVSPropertyOp52
 70
     0
102
RTVSPropertyOp53
 70
     0
102
RTVSPropertyOp54
 70
     0
102
RTVSPropertyOp55
 70
     0
102
RTVSPropertyOp56
 70
     0
102
RTVSPropertyOp57
 70
     0
102
RTVSPost2010Prop28
280
     0
102
RTVSPost2010PropOp28
 70
     0
102
RTVSPost2010Prop29
280
     1
102
RTVSPost2010PropOp29
 70
     0
102
RTVSPost2010Prop30
280
     1
102
RTVSPost2010PropOp30
 70
     0
102
RTVSPost2010Prop31
280
     0
102
RTVSPost2010PropOp31
 70
     0
102
RTVSPost2010Prop32
280
     0
102
RTVSPost2010PropOp32
 70
     0
102
RTVSPost2010Prop33
280
     0
102
RTVSPost2010PropOp33
 70
     0
102
RTVSPost2010Prop34
280
     0
102
RTVSPost2010PropOp34
 70
     0
102
RTVSPost2010Prop35
280
     0
102
RTVSPost2010PropOp35
 70
     0
102
RTVSPost2010Prop36
280
     0
102
RTVSPost2010PropOp36
 70
     0
102
RTVSPost2010Prop37
 90
       50
102
RTVSPost2010PropOp37
 70
     0
102
RTVSPost2010Prop38
140
0.0
102
RTVSPost2010PropOp38
 70
     0
102
RTVSPost2010Prop39
140
1.0
102
RTVSPost2010PropOp39
 70
     0
102
RTVSPost2010Prop40
 90
        0
102
RTVSPost2010PropOp40
 70
     0
102
RTVSPost2010Prop41ColorIndex
 90
       18
102
RTVSPost2010Prop41ColorRGB
 90
        0
102
RTVSPost2010PropOp41
 70
     0
102
RTVSPost2010Prop42
 90
       50
102
RTVSPost2010PropOp42
 70
     0
102
RTVSPost2010Prop43
 90
        3
102
RTVSPost2010PropOp43
 70
     0
102
RTVSPost2010Prop44ColorIndex
 90
        5
102
RTVSPost2010Prop44ColorRGB
 90
      255
102
RTVSPost2010PropOp44
 70
     0
102
RTVSPost2010Prop45
280
     0
102
RTVSPost2010PropOp45
 70
     0
102
RTVSPost2010Prop46
 90
       50
102
RTVSPost2010PropOp46
 70
     0
102
RTVSPost2010Prop47
 90
       50
102
RTVSPost2010PropOp47
 70
     0
102
RTVSPost2010Prop48
 90
       50
102
RTVSPost2010PropOp48
 70
     0
102
RTVSPost2010Prop49
280
     0
102
RTVSPost2010PropOp49
 70
     0
102
RTVSPost2010Prop50
 90
       50
102
RTVSPost2010PropOp50
 70
     0
102
RTVSPost2010Prop51ColorIndex
 90
      256
102
RTVSPost2010Prop51ColorRGB
 90
-16777216
102
RTVSPost2010PropOp51
 70
     0
102
RTVSPost2010Prop52
140
1.0
102
RTVSPost2010PropOp52
 70
     0
102
RTVSPost2010Prop53
 90
        2
102
RTVSPost2010PropOp53
 70
     0
102
RTVSPost2010Prop54
  1
strokes_ogs.tif
102
RTVSPost2010PropOp54
 70
     0
102
RTVSPost2010Prop55
280
     0
102
RTVSPost2010PropOp55
 70
     0
102
RTVSPost2010Prop56
140
1.0
102
RTVSPost2010PropOp56
 70
     0
102
RTVSPost2010Prop57
140
1.0
102
RTVSPost2010PropOp57
 70
     0
  0
XRECORD
  5
2E1
102
{ACAD_REACTORS
330
2E0
102
}
330
2E0
100
AcDbXrecord
280
     1
102
RTVSPropertyOp0
 70
     1
102
RTVSPropertyOp1
 70
     1
102
RTVSPropertyOp2
 70
     1
102
RTVSPropertyOp3
 70
     1
102
RTVSPropertyOp4
 70
     1
102
RTVSPropertyOp5
 70
     1
102
RTVSPropertyOp6
 70
     1
102
RTVSPropertyOp7
 70
     1
102
RTVSPropertyOp8
 70
     1
102
RTVSPropertyOp9
 70
     1
102
RTVSPropertyOp10
 70
     1
102
RTVSPropertyOp11
 70
     1
102
RTVSPropertyOp12
 70
     1
102
RTVSPropertyOp13
 70
     1
102
RTVSPropertyOp14
 70
     1
102
RTVSPropertyOp15
 70
     1
102
RTVSPropertyOp16
 70
     1
102
RTVSPropertyOp17
 70
     1
102
RTVSPropertyOp18
 70
     1
102
RTVSPropertyOp19
 70
     1
102
RTVSPropertyOp20
 70
     1
102
RTVSPropertyOp21
 70
     1
102
RTVSPropertyOp22
 70
     1
102
RTVSPropertyOp23
 70
     1
102
RTVSPropertyOp24
 70
     1
102
RTVSPropertyOp25
 70
     1
102
RTVSPropertyOp26
 70
     1
102
RTVSPropertyOp27
 70
     1
102
RTVSPropertyOp28
 70
     1
102
RTVSPropertyOp29
 70
     1
102
RTVSPropertyOp30
 70
     1
102
RTVSPropertyOp31
 70
     1
102
RTVSPropertyOp32
 70
     1
102
RTVSPropertyOp33
 70
     1
102
RTVSPropertyOp34
 70
     1
102
RTVSPropertyOp35
 70
     1
102
RTVSPropertyOp36
 70
     1
102
RTVSPropertyOp37
 70
     1
102
RTVSPropertyOp38
 70
     1
102
RTVSPropertyOp39
 70
     1
102
RTVSPropertyOp40
 70
     1
102
RTVSPropertyOp41
 70
     1
102
RTVSPropertyOp42
 70
     1
102
RTVSPropertyOp43
 70
     1
102
RTVSPropertyOp44
 70
     1
102
RTVSPropertyOp45
 70
     1
102
RTVSPropertyOp46
 70
     1
102
RTVSPropertyOp47
 70
     1
102
RTVSPropertyOp48
 70
     1
102
RTVSPropertyOp49
 70
     1
102
RTVSPropertyOp50
 70
     1
102
RTVSPropertyOp51
 70
     0
102
RTVSPropertyOp52
 70
     0
102
RTVSPropertyOp53
 70
     1
102
RTVSPropertyOp54
 70
     1
102
RTVSPropertyOp55
 70
     1
102
RTVSPropertyOp56
 70
     1
102
RTVSPropertyOp57
 70
     1
102
RTVSPost2010Prop28
280
     0
102
RTVSPost2010PropOp28
 70
     1
102
RTVSPost2010Prop29
280
     1
102
RTVSPost2010PropOp29
 70
     1
102
RTVSPost2010Prop30
280
     1
102
RTVSPost2010PropOp30
 70
     1
102
RTVSPost2010Prop31
280
     0
102
RTVSPost2010PropOp31
 70
     1
102
RTVSPost2010Prop32
280
     0
102
RTVSPost2010PropOp32
 70
     1
102
RTVSPost2010Prop33
280
     0
102
RTVSPost2010PropOp33
 70
     1
102
RTVSPost2010Prop34
280
     0
102
RTVSPost2010PropOp34
 70
     1
102
RTVSPost2010Prop35
280
     0
102
RTVSPost2010PropOp35
 70
     1
102
RTVSPost2010Prop36
280
     0
102
RTVSPost2010PropOp36
 70
     1
102
RTVSPost2010Prop37
 90
       50
102
RTVSPost2010PropOp37
 70
     1
102
RTVSPost2010Prop38
140
0.0
102
RTVSPost2010PropOp38
 70
     1
102
RTVSPost2010Prop39
140
1.0
102
RTVSPost2010PropOp39
 70
     1
102
RTVSPost2010Prop40
 90
        0
102
RTVSPost2010PropOp40
 70
     1
102
RTVSPost2010Prop41ColorIndex
 90
       18
102
RTVSPost2010Prop41ColorRGB
 90
        0
102
RTVSPost2010PropOp41
 70
     1
102
RTVSPost2010Prop42
 90
       50
102
RTVSPost2010PropOp42
 70
     1
102
RTVSPost2010Prop43
 90
        3
102
RTVSPost2010PropOp43
 70
     1
102
RTVSPost2010Prop44ColorIndex
 90
        5
102
RTVSPost2010Prop44ColorRGB
 90
      255
102
RTVSPost2010PropOp44
 70
     1
102
RTVSPost2010Prop45
280
     0
102
RTVSPost2010PropOp45
 70
     1
102
RTVSPost2010Prop46
 90
       50
102
RTVSPost2010PropOp46
 70
     1
102
RTVSPost2010Prop47
 90
       50
102
RTVSPost2010PropOp47
 70
     1
102
RTVSPost2010Prop48
 90
       50
102
RTVSPost2010PropOp48
 70
     1
102
RTVSPost2010Prop49
280
     0
102
RTVSPost2010PropOp49
 70
     1
102
RTVSPost2010Prop50
 90
       50
102
RTVSPost2010PropOp50
 70
     1
102
RTVSPost2010Prop51ColorIndex
 90
      256
102
RTVSPost2010Prop51ColorRGB
 90
-16777216
102
RTVSPost2010PropOp51
 70
     0
102
RTVSPost2010Prop52
140
1.0
102
RTVSPost2010PropOp52
 70
     0
102
RTVSPost2010Prop53
 90
        2
102
RTVSPost2010PropOp53
 70
     1
102
RTVSPost2010Prop54
  1
strokes_ogs.tif
102
RTVSPost2010PropOp54
 70
     1
102
RTVSPost2010Prop55
280
     0
102
RTVSPost2010PropOp55
 70
     1
102
RTVSPost2010Prop56
140
1.0
102
RTVSPost2010PropOp56
 70
     1
102
RTVSPost2010Prop57
140
1.0
102
RTVSPost2010PropOp57
 70
     1
  0
XRECORD
  5
2E9
102
{ACAD_REACTORS
330
2E8
102
}
330
2E8
100
AcDbXrecord
280
     1
102
RTVSPropertyOp0
 70
     0
102
RTVSPropertyOp1
 70
     0
102
RTVSPropertyOp2
 70
     0
102
RTVSPropertyOp3
 70
     0
102
RTVSPropertyOp4
 70
     0
102
RTVSPropertyOp5
 70
     0
102
RTVSPropertyOp6
 70
     0
102
RTVSPropertyOp7
 70
     0
102
RTVSPropertyOp8
 70
     0
102
RTVSPropertyOp9
 70
     0
102
RTVSPropertyOp10
 70
     0
102
RTVSPropertyOp11
 70
     0
102
RTVSPropertyOp12
 70
     0
102
RTVSPropertyOp13
 70
     0
102
RTVSPropertyOp14
 70
     2
102
RTVSPropertyOp15
 70
     0
102
RTVSPropertyOp16
 70
     0
102
RTVSPropertyOp17
 70
     0
102
RTVSPropertyOp18
 70
     0
102
RTVSPropertyOp19
 70
     0
102
RTVSPropertyOp20
 70
     0
102
RTVSPropertyOp21
 70
     0
102
RTVSPropertyOp22
 70
     0
102
RTVSPropertyOp23
 70
     0
102
RTVSPropertyOp24
 70
     0
102
RTVSPropertyOp25
 70
     0
102
RTVSPropertyOp26
 70
     0
102
RTVSPropertyOp27
 70
     0
102
RTVSPropertyOp28
 70
     0
102
RTVSPropertyOp29
 70
     0
102
RTVSPropertyOp30
 70
     0
102
RTVSPropertyOp31
 70
     0
102
RTVSPropertyOp32
 70
     0
102
RTVSPropertyOp33
 70
     0
102
RTVSPropertyOp34
 70
     0
102
RTVSPropertyOp35
 70
     0
102
RTVSPropertyOp36
 70
     0
102
RTVSPropertyOp37
 70
     0
102
RTVSPropertyOp38
 70
     0
102
RTVSPropertyOp39
 70
     0
102
RTVSPropertyOp40
 70
     0
102
RTVSPropertyOp41
 70
     0
102
RTVSPropertyOp42
 70
     0
102
RTVSPropertyOp43
 70
     0
102
RTVSPropertyOp44
 70
     0
102
RTVSPropertyOp45
 70
     0
102
RTVSPropertyOp46
 70
     0
102
RTVSPropertyOp47
 70
     0
102
RTVSPropertyOp48
 70
     0
102
RTVSPropertyOp49
 70
     0
102
RTVSPropertyOp50
 70
     0
102
RTVSPropertyOp51
 70
     0
102
RTVSPropertyOp52
 70
     0
102
RTVSPropertyOp53
 70
     0
102
RTVSPropertyOp54
 70
     0
102
RTVSPropertyOp55
 70
     0
102
RTVSPropertyOp56
 70
     0
102
RTVSPropertyOp57
 70
     0
102
RTVSPost2010Prop28
280
     0
102
RTVSPost2010PropOp28
 70
     0
102
RTVSPost2010Prop29
280
     1
102
RTVSPost2010PropOp29
 70
     0
102
RTVSPost2010Prop30
280
     1
102
RTVSPost2010PropOp30
 70
     0
102
RTVSPost2010Prop31
280
     0
102
RTVSPost2010PropOp31
 70
     0
102
RTVSPost2010Prop32
280
     0
102
RTVSPost2010PropOp32
 70
     0
102
RTVSPost2010Prop33
280
     0
102
RTVSPost2010PropOp33
 70
     0
102
RTVSPost2010Prop34
280
     0
102
RTVSPost2010PropOp34
 70
     0
102
RTVSPost2010Prop35
280
     0
102
RTVSPost2010PropOp35
 70
     0
102
RTVSPost2010Prop36
280
     0
102
RTVSPost2010PropOp36
 70
     0
102
RTVSPost2010Prop37
 90
       50
102
RTVSPost2010PropOp37
 70
     0
102
RTVSPost2010Prop38
140
0.0
102
RTVSPost2010PropOp38
 70
     0
102
RTVSPost2010Prop39
140
1.0
102
RTVSPost2010PropOp39
 70
     0
102
RTVSPost2010Prop40
 90
        0
102
RTVSPost2010PropOp40
 70
     0
102
RTVSPost2010Prop41ColorIndex
 90
       18
102
RTVSPost2010Prop41ColorRGB
 90
        0
102
RTVSPost2010PropOp41
 70
     0
102
RTVSPost2010Prop42
 90
       50
102
RTVSPost2010PropOp42
 70
     0
102
RTVSPost2010Prop43
 90
        3
102
RTVSPost2010PropOp43
 70
     0
102
RTVSPost2010Prop44ColorIndex
 90
        5
102
RTVSPost2010Prop44ColorRGB
 90
      255
102
RTVSPost2010PropOp44
 70
     0
102
RTVSPost2010Prop45
280
     0
102
RTVSPost2010PropOp45
 70
     0
102
RTVSPost2010Prop46
 90
       50
102
RTVSPost2010PropOp46
 70
     0
102
RTVSPost2010Prop47
 90
       50
102
RTVSPost2010PropOp47
 70
     0
102
RTVSPost2010Prop48
 90
       50
102
RTVSPost2010PropOp48
 70
     0
102
RTVSPost2010Prop49
280
     0
102
RTVSPost2010PropOp49
 70
     0
102
RTVSPost2010Prop50
 90
       50
102
RTVSPost2010PropOp50
 70
     0
102
RTVSPost2010Prop51ColorIndex
 90
      256
102
RTVSPost2010Prop51ColorRGB
 90
-16777216
102
RTVSPost2010PropOp51
 70
     0
102
RTVSPost2010Prop52
140
1.0
102
RTVSPost2010PropOp52
 70
     0
102
RTVSPost2010Prop53
 90
        2
102
RTVSPost2010PropOp53
 70
     0
102
RTVSPost2010Prop54
  1
strokes_ogs.tif
102
RTVSPost2010PropOp54
 70
     0
102
RTVSPost2010Prop55
280
     0
102
RTVSPost2010PropOp55
 70
     0
102
RTVSPost2010Prop56
140
1.0
102
RTVSPost2010PropOp56
 70
     0
102
RTVSPost2010Prop57
140
1.0
102
RTVSPost2010PropOp57
 70
     0
  0
XRECORD
  5
2D7
102
{ACAD_REACTORS
330
2D6
102
}
330
2D6
100
AcDbXrecord
280
     1
102
RTVSPropertyOp0
 70
     1
102
RTVSPropertyOp1
 70
     1
102
RTVSPropertyOp2
 70
     1
102
RTVSPropertyOp3
 70
     1
102
RTVSPropertyOp4
 70
     1
102
RTVSPropertyOp5
 70
     1
102
RTVSPropertyOp6
 70
     1
102
RTVSPropertyOp7
 70
     1
102
RTVSPropertyOp8
 70
     1
102
RTVSPropertyOp9
 70
     1
102
RTVSPropertyOp10
 70
     1
102
RTVSPropertyOp11
 70
     1
102
RTVSPropertyOp12
 70
     1
102
RTVSPropertyOp13
 70
     1
102
RTVSPropertyOp14
 70
     1
102
RTVSPropertyOp15
 70
     1
102
RTVSPropertyOp16
 70
     1
102
RTVSPropertyOp17
 70
     1
102
RTVSPropertyOp18
 70
     1
102
RTVSPropertyOp19
 70
     1
102
RTVSPropertyOp20
 70
     1
102
RTVSPropertyOp21
 70
     1
102
RTVSPropertyOp22
 70
     1
102
RTVSPropertyOp23
 70
     1
102
RTVSPropertyOp24
 70
     1
102
RTVSPropertyOp25
 70
     1
102
RTVSPropertyOp26
 70
     1
102
RTVSPropertyOp27
 70
     1
102
RTVSPropertyOp28
 70
     1
102
RTVSPropertyOp29
 70
     1
102
RTVSPropertyOp30
 70
     1
102
RTVSPropertyOp31
 70
     1
102
RTVSPropertyOp32
 70
     1
102
RTVSPropertyOp33
 70
     1
102
RTVSPropertyOp34
 70
     1
102
RTVSPropertyOp35
 70
     1
102
RTVSPropertyOp36
 70
     1
102
RTVSPropertyOp37
 70
     1
102
RTVSPropertyOp38
 70
     1
102
RTVSPropertyOp39
 70
     1
102
RTVSPropertyOp40
 70
     1
102
RTVSPropertyOp41
 70
     1
102
RTVSPropertyOp42
 70
     1
102
RTVSPropertyOp43
 70
     1
102
RTVSPropertyOp44
 70
     1
102
RTVSPropertyOp45
 70
     1
102
RTVSPropertyOp46
 70
     1
102
RTVSPropertyOp47
 70
     1
102
RTVSPropertyOp48
 70
     1
102
RTVSPropertyOp49
 70
     1
102
RTVSPropertyOp50
 70
     1
102
RTVSPropertyOp51
 70
     0
102
RTVSPropertyOp52
 70
     0
102
RTVSPropertyOp53
 70
     1
102
RTVSPropertyOp54
 70
     1
102
RTVSPropertyOp55
 70
     1
102
RTVSPropertyOp56
 70
     1
102
RTVSPropertyOp57
 70
     1
102
RTVSPost2010Prop28
280
     0
102
RTVSPost2010PropOp28
 70
     1
102
RTVSPost2010Prop29
280
     1
102
RTVSPost2010PropOp29
 70
     1
102
RTVSPost2010Prop30
280
     1
102
RTVSPost2010PropOp30
 70
     1
102
RTVSPost2010Prop31
280
     0
102
RTVSPost2010PropOp31
 70
     1
102
RTVSPost2010Prop32
280
     0
102
RTVSPost2010PropOp32
 70
     1
102
RTVSPost2010Prop33
280
     0
102
RTVSPost2010PropOp33
 70
     1
102
RTVSPost2010Prop34
280
     0
102
RTVSPost2010PropOp34
 70
     1
102
RTVSPost2010Prop35
280
     0
102
RTVSPost2010PropOp35
 70
     1
102
RTVSPost2010Prop36
280
     0
102
RTVSPost2010PropOp36
 70
     1
102
RTVSPost2010Prop37
 90
       50
102
RTVSPost2010PropOp37
 70
     1
102
RTVSPost2010Prop38
140
0.0
102
RTVSPost2010PropOp38
 70
     1
102
RTVSPost2010Prop39
140
1.0
102
RTVSPost2010PropOp39
 70
     1
102
RTVSPost2010Prop40
 90
        0
102
RTVSPost2010PropOp40
 70
     1
102
RTVSPost2010Prop41ColorIndex
 90
       18
102
RTVSPost2010Prop41ColorRGB
 90
        0
102
RTVSPost2010PropOp41
 70
     1
102
RTVSPost2010Prop42
 90
       50
102
RTVSPost2010PropOp42
 70
     1
102
RTVSPost2010Prop43
 90
        3
102
RTVSPost2010PropOp43
 70
     1
102
RTVSPost2010Prop44ColorIndex
 90
        5
102
RTVSPost2010Prop44ColorRGB
 90
      255
102
RTVSPost2010PropOp44
 70
     1
102
RTVSPost2010Prop45
280
     0
102
RTVSPost2010PropOp45
 70
     1
102
RTVSPost2010Prop46
 90
       50
102
RTVSPost2010PropOp46
 70
     1
102
RTVSPost2010Prop47
 90
       50
102
RTVSPost2010PropOp47
 70
     1
102
RTVSPost2010Prop48
 90
       50
102
RTVSPost2010PropOp48
 70
     1
102
RTVSPost2010Prop49
280
     0
102
RTVSPost2010PropOp49
 70
     1
102
RTVSPost2010Prop50
 90
       50
102
RTVSPost2010PropOp50
 70
     1
102
RTVSPost2010Prop51ColorIndex
 90
      256
102
RTVSPost2010Prop51ColorRGB
 90
-16777216
102
RTVSPost2010PropOp51
 70
     0
102
RTVSPost2010Prop52
140
1.0
102
RTVSPost2010PropOp52
 70
     0
102
RTVSPost2010Prop53
 90
        2
102
RTVSPost2010PropOp53
 70
     1
102
RTVSPost2010Prop54
  1
strokes_ogs.tif
102
RTVSPost2010PropOp54
 70
     1
102
RTVSPost2010Prop55
280
     0
102
RTVSPost2010PropOp55
 70
     1
102
RTVSPost2010Prop56
140
1.0
102
RTVSPost2010PropOp56
 70
     1
102
RTVSPost2010Prop57
140
1.0
102
RTVSPost2010PropOp57
 70
     1
  0
XRECORD
  5
2F5
102
{ACAD_REACTORS
330
2F4
102
}
330
2F4
100
AcDbXrecord
280
     1
102
RTVSPropertyOp0
 70
     1
102
RTVSPropertyOp1
 70
     1
102
RTVSPropertyOp2
 70
     1
102
RTVSPropertyOp3
 70
     1
102
RTVSPropertyOp4
 70
     1
102
RTVSPropertyOp5
 70
     1
102
RTVSPropertyOp6
 70
     1
102
RTVSPropertyOp7
 70
     1
102
RTVSPropertyOp8
 70
     1
102
RTVSPropertyOp9
 70
     1
102
RTVSPropertyOp10
 70
     1
102
RTVSPropertyOp11
 70
     1
102
RTVSPropertyOp12
 70
     1
102
RTVSPropertyOp13
 70
     1
102
RTVSPropertyOp14
 70
     1
102
RTVSPropertyOp15
 70
     1
102
RTVSPropertyOp16
 70
     1
102
RTVSPropertyOp17
 70
     1
102
RTVSPropertyOp18
 70
     1
102
RTVSPropertyOp19
 70
     1
102
RTVSPropertyOp20
 70
     1
102
RTVSPropertyOp21
 70
     1
102
RTVSPropertyOp22
 70
     1
102
RTVSPropertyOp23
 70
     1
102
RTVSPropertyOp24
 70
     1
102
RTVSPropertyOp25
 70
     1
102
RTVSPropertyOp26
 70
     1
102
RTVSPropertyOp27
 70
     1
102
RTVSPropertyOp28
 70
     1
102
RTVSPropertyOp29
 70
     1
102
RTVSPropertyOp30
 70
     1
102
RTVSPropertyOp31
 70
     1
102
RTVSPropertyOp32
 70
     1
102
RTVSPropertyOp33
 70
     1
102
RTVSPropertyOp34
 70
     1
102
RTVSPropertyOp35
 70
     1
102
RTVSPropertyOp36
 70
     1
102
RTVSPropertyOp37
 70
     1
102
RTVSPropertyOp38
 70
     1
102
RTVSPropertyOp39
 70
     1
102
RTVSPropertyOp40
 70
     1
102
RTVSPropertyOp41
 70
     1
102
RTVSPropertyOp42
 70
     1
102
RTVSPropertyOp43
 70
     1
102
RTVSPropertyOp44
 70
     1
102
RTVSPropertyOp45
 70
     1
102
RTVSPropertyOp46
 70
     1
102
RTVSPropertyOp47
 70
     1
102
RTVSPropertyOp48
 70
     1
102
RTVSPropertyOp49
 70
     1
102
RTVSPropertyOp50
 70
     1
102
RTVSPropertyOp51
 70
     0
102
RTVSPropertyOp52
 70
     0
102
RTVSPropertyOp53
 70
     1
102
RTVSPropertyOp54
 70
     1
102
RTVSPropertyOp55
 70
     1
102
RTVSPropertyOp56
 70
     1
102
RTVSPropertyOp57
 70
     1
102
RTVSPost2010Prop28
280
     0
102
RTVSPost2010PropOp28
 70
     1
102
RTVSPost2010Prop29
280
     1
102
RTVSPost2010PropOp29
 70
     1
102
RTVSPost2010Prop30
280
     1
102
RTVSPost2010PropOp30
 70
     1
102
RTVSPost2010Prop31
280
     0
102
RTVSPost2010PropOp31
 70
     1
102
RTVSPost2010Prop32
280
     0
102
RTVSPost2010PropOp32
 70
     1
102
RTVSPost2010Prop33
280
     0
102
RTVSPost2010PropOp33
 70
     1
102
RTVSPost2010Prop34
280
     0
102
RTVSPost2010PropOp34
 70
     1
102
RTVSPost2010Prop35
280
     0
102
RTVSPost2010PropOp35
 70
     1
102
RTVSPost2010Prop36
280
     0
102
RTVSPost2010PropOp36
 70
     1
102
RTVSPost2010Prop37
 90
       50
102
RTVSPost2010PropOp37
 70
     1
102
RTVSPost2010Prop38
140
0.0
102
RTVSPost2010PropOp38
 70
     1
102
RTVSPost2010Prop39
140
1.0
102
RTVSPost2010PropOp39
 70
     1
102
RTVSPost2010Prop40
 90
        0
102
RTVSPost2010PropOp40
 70
     1
102
RTVSPost2010Prop41ColorIndex
 90
       18
102
RTVSPost2010Prop41ColorRGB
 90
        0
102
RTVSPost2010PropOp41
 70
     1
102
RTVSPost2010Prop42
 90
       50
102
RTVSPost2010PropOp42
 70
     1
102
RTVSPost2010Prop43
 90
        3
102
RTVSPost2010PropOp43
 70
     1
102
RTVSPost2010Prop44ColorIndex
 90
        5
102
RTVSPost2010Prop44ColorRGB
 90
      255
102
RTVSPost2010PropOp44
 70
     1
102
RTVSPost2010Prop45
280
     0
102
RTVSPost2010PropOp45
 70
     1
102
RTVSPost2010Prop46
 90
       50
102
RTVSPost2010PropOp46
 70
     1
102
RTVSPost2010Prop47
 90
       50
102
RTVSPost2010PropOp47
 70
     1
102
RTVSPost2010Prop48
 90
       50
102
RTVSPost2010PropOp48
 70
     1
102
RTVSPost2010Prop49
280
     0
102
RTVSPost2010PropOp49
 70
     1
102
RTVSPost2010Prop50
 90
       50
102
RTVSPost2010PropOp50
 70
     1
102
RTVSPost2010Prop51ColorIndex
 90
      256
102
RTVSPost2010Prop51ColorRGB
 90
-16777216
102
RTVSPost2010PropOp51
 70
     0
102
RTVSPost2010Prop52
140
1.0
102
RTVSPost2010PropOp52
 70
     0
102
RTVSPost2010Prop53
 90
        2
102
RTVSPost2010PropOp53
 70
     1
102
RTVSPost2010Prop54
  1
strokes_ogs.tif
102
RTVSPost2010PropOp54
 70
     1
102
RTVSPost2010Prop55
280
     0
102
RTVSPost2010PropOp55
 70
     1
102
RTVSPost2010Prop56
140
1.0
102
RTVSPost2010PropOp56
 70
     1
102
RTVSPost2010Prop57
140
1.0
102
RTVSPost2010PropOp57
 70
     1
  0
XRECORD
  5
2F3
102
{ACAD_REACTORS
330
2F2
102
}
330
2F2
100
AcDbXrecord
280
     1
102
RTVSPropertyOp0
 70
     1
102
RTVSPropertyOp1
 70
     1
102
RTVSPropertyOp2
 70
     1
102
RTVSPropertyOp3
 70
     1
102
RTVSPropertyOp4
 70
     1
102
RTVSPropertyOp5
 70
     1
102
RTVSPropertyOp6
 70
     1
102
RTVSPropertyOp7
 70
     1
102
RTVSPropertyOp8
 70
     1
102
RTVSPropertyOp9
 70
     1
102
RTVSPropertyOp10
 70
     1
102
RTVSPropertyOp11
 70
     1
102
RTVSPropertyOp12
 70
     1
102
RTVSPropertyOp13
 70
     1
102
RTVSPropertyOp14
 70
     1
102
RTVSPropertyOp15
 70
     1
102
RTVSPropertyOp16
 70
     1
102
RTVSPropertyOp17
 70
     1
102
RTVSPropertyOp18
 70
     1
102
RTVSPropertyOp19
 70
     1
102
RTVSPropertyOp20
 70
     1
102
RTVSPropertyOp21
 70
     1
102
RTVSPropertyOp22
 70
     1
102
RTVSPropertyOp23
 70
     1
102
RTVSPropertyOp24
 70
     1
102
RTVSPropertyOp25
 70
     1
102
RTVSPropertyOp26
 70
     1
102
RTVSPropertyOp27
 70
     1
102
RTVSPropertyOp28
 70
     1
102
RTVSPropertyOp29
 70
     1
102
RTVSPropertyOp30
 70
     1
102
RTVSPropertyOp31
 70
     1
102
RTVSPropertyOp32
 70
     1
102
RTVSPropertyOp33
 70
     1
102
RTVSPropertyOp34
 70
     1
102
RTVSPropertyOp35
 70
     1
102
RTVSPropertyOp36
 70
     1
102
RTVSPropertyOp37
 70
     1
102
RTVSPropertyOp38
 70
     1
102
RTVSPropertyOp39
 70
     1
102
RTVSPropertyOp40
 70
     1
102
RTVSPropertyOp41
 70
     1
102
RTVSPropertyOp42
 70
     1
102
RTVSPropertyOp43
 70
     1
102
RTVSPropertyOp44
 70
     1
102
RTVSPropertyOp45
 70
     1
102
RTVSPropertyOp46
 70
     1
102
RTVSPropertyOp47
 70
     1
102
RTVSPropertyOp48
 70
     1
102
RTVSPropertyOp49
 70
     1
102
RTVSPropertyOp50
 70
     1
102
RTVSPropertyOp51
 70
     0
102
RTVSPropertyOp52
 70
     0
102
RTVSPropertyOp53
 70
     1
102
RTVSPropertyOp54
 70
     1
102
RTVSPropertyOp55
 70
     1
102
RTVSPropertyOp56
 70
     1
102
RTVSPropertyOp57
 70
     1
102
RTVSPost2010Prop28
280
     0
102
RTVSPost2010PropOp28
 70
     1
102
RTVSPost2010Prop29
280
     1
102
RTVSPost2010PropOp29
 70
     1
102
RTVSPost2010Prop30
280
     1
102
RTVSPost2010PropOp30
 70
     1
102
RTVSPost2010Prop31
280
     0
102
RTVSPost2010PropOp31
 70
     1
102
RTVSPost2010Prop32
280
     0
102
RTVSPost2010PropOp32
 70
     1
102
RTVSPost2010Prop33
280
     0
102
RTVSPost2010PropOp33
 70
     1
102
RTVSPost2010Prop34
280
     0
102
RTVSPost2010PropOp34
 70
     1
102
RTVSPost2010Prop35
280
     0
102
RTVSPost2010PropOp35
 70
     1
102
RTVSPost2010Prop36
280
     0
102
RTVSPost2010PropOp36
 70
     1
102
RTVSPost2010Prop37
 90
       50
102
RTVSPost2010PropOp37
 70
     1
102
RTVSPost2010Prop38
140
0.0
102
RTVSPost2010PropOp38
 70
     1
102
RTVSPost2010Prop39
140
1.0
102
RTVSPost2010PropOp39
 70
     1
102
RTVSPost2010Prop40
 90
        0
102
RTVSPost2010PropOp40
 70
     1
102
RTVSPost2010Prop41ColorIndex
 90
       18
102
RTVSPost2010Prop41ColorRGB
 90
        0
102
RTVSPost2010PropOp41
 70
     1
102
RTVSPost2010Prop42
 90
       50
102
RTVSPost2010PropOp42
 70
     1
102
RTVSPost2010Prop43
 90
        3
102
RTVSPost2010PropOp43
 70
     1
102
RTVSPost2010Prop44ColorIndex
 90
        5
102
RTVSPost2010Prop44ColorRGB
 90
      255
102
RTVSPost2010PropOp44
 70
     1
102
RTVSPost2010Prop45
280
     0
102
RTVSPost2010PropOp45
 70
     1
102
RTVSPost2010Prop46
 90
       50
102
RTVSPost2010PropOp46
 70
     1
102
RTVSPost2010Prop47
 90
       50
102
RTVSPost2010PropOp47
 70
     1
102
RTVSPost2010Prop48
 90
       50
102
RTVSPost2010PropOp48
 70
     1
102
RTVSPost2010Prop49
280
     0
102
RTVSPost2010PropOp49
 70
     1
102
RTVSPost2010Prop50
 90
       50
102
RTVSPost2010PropOp50
 70
     1
102
RTVSPost2010Prop51ColorIndex
 90
      256
102
RTVSPost2010Prop51ColorRGB
 90
-16777216
102
RTVSPost2010PropOp51
 70
     0
102
RTVSPost2010Prop52
140
1.0
102
RTVSPost2010PropOp52
 70
     0
102
RTVSPost2010Prop53
 90
        2
102
RTVSPost2010PropOp53
 70
     1
102
RTVSPost2010Prop54
  1
strokes_ogs.tif
102
RTVSPost2010PropOp54
 70
     1
102
RTVSPost2010Prop55
280
     0
102
RTVSPost2010PropOp55
 70
     1
102
RTVSPost2010Prop56
140
1.0
102
RTVSPost2010PropOp56
 70
     1
102
RTVSPost2010Prop57
140
1.0
102
RTVSPost2010PropOp57
 70
     1
  0
XRECORD
  5
2ED
102
{ACAD_REACTORS
330
2EC
102
}
330
2EC
100
AcDbXrecord
280
     1
102
RTVSPropertyOp0
 70
     1
102
RTVSPropertyOp1
 70
     1
102
RTVSPropertyOp2
 70
     1
102
RTVSPropertyOp3
 70
     1
102
RTVSPropertyOp4
 70
     1
102
RTVSPropertyOp5
 70
     1
102
RTVSPropertyOp6
 70
     1
102
RTVSPropertyOp7
 70
     1
102
RTVSPropertyOp8
 70
     1
102
RTVSPropertyOp9
 70
     1
102
RTVSPropertyOp10
 70
     1
102
RTVSPropertyOp11
 70
     1
102
RTVSPropertyOp12
 70
     1
102
RTVSPropertyOp13
 70
     1
102
RTVSPropertyOp14
 70
     1
102
RTVSPropertyOp15
 70
     1
102
RTVSPropertyOp16
 70
     1
102
RTVSPropertyOp17
 70
     1
102
RTVSPropertyOp18
 70
     1
102
RTVSPropertyOp19
 70
     1
102
RTVSPropertyOp20
 70
     1
102
RTVSPropertyOp21
 70
     1
102
RTVSPropertyOp22
 70
     1
102
RTVSPropertyOp23
 70
     1
102
RTVSPropertyOp24
 70
     1
102
RTVSPropertyOp25
 70
     1
102
RTVSPropertyOp26
 70
     1
102
RTVSPropertyOp27
 70
     1
102
RTVSPropertyOp28
 70
     1
102
RTVSPropertyOp29
 70
     1
102
RTVSPropertyOp30
 70
     1
102
RTVSPropertyOp31
 70
     1
102
RTVSPropertyOp32
 70
     1
102
RTVSPropertyOp33
 70
     1
102
RTVSPropertyOp34
 70
     1
102
RTVSPropertyOp35
 70
     1
102
RTVSPropertyOp36
 70
     1
102
RTVSPropertyOp37
 70
     1
102
RTVSPropertyOp38
 70
     1
102
RTVSPropertyOp39
 70
     1
102
RTVSPropertyOp40
 70
     1
102
RTVSPropertyOp41
 70
     1
102
RTVSPropertyOp42
 70
     1
102
RTVSPropertyOp43
 70
     1
102
RTVSPropertyOp44
 70
     1
102
RTVSPropertyOp45
 70
     1
102
RTVSPropertyOp46
 70
     1
102
RTVSPropertyOp47
 70
     1
102
RTVSPropertyOp48
 70
     1
102
RTVSPropertyOp49
 70
     1
102
RTVSPropertyOp50
 70
     1
102
RTVSPropertyOp51
 70
     0
102
RTVSPropertyOp52
 70
     0
102
RTVSPropertyOp53
 70
     1
102
RTVSPropertyOp54
 70
     1
102
RTVSPropertyOp55
 70
     1
102
RTVSPropertyOp56
 70
     1
102
RTVSPropertyOp57
 70
     1
102
RTVSPost2010Prop28
280
     0
102
RTVSPost2010PropOp28
 70
     1
102
RTVSPost2010Prop29
280
     1
102
RTVSPost2010PropOp29
 70
     1
102
RTVSPost2010Prop30
280
     1
102
RTVSPost2010PropOp30
 70
     1
102
RTVSPost2010Prop31
280
     0
102
RTVSPost2010PropOp31
 70
     1
102
RTVSPost2010Prop32
280
     0
102
RTVSPost2010PropOp32
 70
     1
102
RTVSPost2010Prop33
280
     0
102
RTVSPost2010PropOp33
 70
     1
102
RTVSPost2010Prop34
280
     0
102
RTVSPost2010PropOp34
 70
     1
102
RTVSPost2010Prop35
280
     0
102
RTVSPost2010PropOp35
 70
     1
102
RTVSPost2010Prop36
280
     0
102
RTVSPost2010PropOp36
 70
     1
102
RTVSPost2010Prop37
 90
       50
102
RTVSPost2010PropOp37
 70
     1
102
RTVSPost2010Prop38
140
0.0
102
RTVSPost2010PropOp38
 70
     1
102
RTVSPost2010Prop39
140
1.0
102
RTVSPost2010PropOp39
 70
     1
102
RTVSPost2010Prop40
 90
        0
102
RTVSPost2010PropOp40
 70
     1
102
RTVSPost2010Prop41ColorIndex
 90
       18
102
RTVSPost2010Prop41ColorRGB
 90
        0
102
RTVSPost2010PropOp41
 70
     1
102
RTVSPost2010Prop42
 90
       50
102
RTVSPost2010PropOp42
 70
     1
102
RTVSPost2010Prop43
 90
        3
102
RTVSPost2010PropOp43
 70
     1
102
RTVSPost2010Prop44ColorIndex
 90
        5
102
RTVSPost2010Prop44ColorRGB
 90
      255
102
RTVSPost2010PropOp44
 70
     1
102
RTVSPost2010Prop45
280
     0
102
RTVSPost2010PropOp45
 70
     1
102
RTVSPost2010Prop46
 90
       50
102
RTVSPost2010PropOp46
 70
     1
102
RTVSPost2010Prop47
 90
       50
102
RTVSPost2010PropOp47
 70
     1
102
RTVSPost2010Prop48
 90
       50
102
RTVSPost2010PropOp48
 70
     1
102
RTVSPost2010Prop49
280
     0
102
RTVSPost2010PropOp49
 70
     1
102
RTVSPost2010Prop50
 90
       50
102
RTVSPost2010PropOp50
 70
     1
102
RTVSPost2010Prop51ColorIndex
 90
      256
102
RTVSPost2010Prop51ColorRGB
 90
-16777216
102
RTVSPost2010PropOp51
 70
     0
102
RTVSPost2010Prop52
140
1.0
102
RTVSPost2010PropOp52
 70
     0
102
RTVSPost2010Prop53
 90
        2
102
RTVSPost2010PropOp53
 70
     1
102
RTVSPost2010Prop54
  1
strokes_ogs.tif
102
RTVSPost2010PropOp54
 70
     1
102
RTVSPost2010Prop55
280
     0
102
RTVSPost2010PropOp55
 70
     1
102
RTVSPost2010Prop56
140
1.0
102
RTVSPost2010PropOp56
 70
     1
102
RTVSPost2010Prop57
140
1.0
102
RTVSPost2010PropOp57
 70
     1
  0
XRECORD
  5
2EF
102
{ACAD_REACTORS
330
2EE
102
}
330
2EE
100
AcDbXrecord
280
     1
102
RTVSPropertyOp0
 70
     1
102
RTVSPropertyOp1
 70
     1
102
RTVSPropertyOp2
 70
     1
102
RTVSPropertyOp3
 70
     1
102
RTVSPropertyOp4
 70
     1
102
RTVSPropertyOp5
 70
     1
102
RTVSPropertyOp6
 70
     1
102
RTVSPropertyOp7
 70
     1
102
RTVSPropertyOp8
 70
     1
102
RTVSPropertyOp9
 70
     1
102
RTVSPropertyOp10
 70
     1
102
RTVSPropertyOp11
 70
     1
102
RTVSPropertyOp12
 70
     1
102
RTVSPropertyOp13
 70
     1
102
RTVSPropertyOp14
 70
     1
102
RTVSPropertyOp15
 70
     1
102
RTVSPropertyOp16
 70
     1
102
RTVSPropertyOp17
 70
     1
102
RTVSPropertyOp18
 70
     1
102
RTVSPropertyOp19
 70
     1
102
RTVSPropertyOp20
 70
     1
102
RTVSPropertyOp21
 70
     1
102
RTVSPropertyOp22
 70
     1
102
RTVSPropertyOp23
 70
     1
102
RTVSPropertyOp24
 70
     1
102
RTVSPropertyOp25
 70
     1
102
RTVSPropertyOp26
 70
     1
102
RTVSPropertyOp27
 70
     1
102
RTVSPropertyOp28
 70
     1
102
RTVSPropertyOp29
 70
     1
102
RTVSPropertyOp30
 70
     1
102
RTVSPropertyOp31
 70
     1
102
RTVSPropertyOp32
 70
     1
102
RTVSPropertyOp33
 70
     1
102
RTVSPropertyOp34
 70
     1
102
RTVSPropertyOp35
 70
     1
102
RTVSPropertyOp36
 70
     1
102
RTVSPropertyOp37
 70
     1
102
RTVSPropertyOp38
 70
     1
102
RTVSPropertyOp39
 70
     1
102
RTVSPropertyOp40
 70
     1
102
RTVSPropertyOp41
 70
     1
102
RTVSPropertyOp42
 70
     1
102
RTVSPropertyOp43
 70
     1
102
RTVSPropertyOp44
 70
     1
102
RTVSPropertyOp45
 70
     1
102
RTVSPropertyOp46
 70
     1
102
RTVSPropertyOp47
 70
     1
102
RTVSPropertyOp48
 70
     1
102
RTVSPropertyOp49
 70
     1
102
RTVSPropertyOp50
 70
     1
102
RTVSPropertyOp51
 70
     0
102
RTVSPropertyOp52
 70
     0
102
RTVSPropertyOp53
 70
     1
102
RTVSPropertyOp54
 70
     1
102
RTVSPropertyOp55
 70
     1
102
RTVSPropertyOp56
 70
     1
102
RTVSPropertyOp57
 70
     1
102
RTVSPost2010Prop28
280
     0
102
RTVSPost2010PropOp28
 70
     1
102
RTVSPost2010Prop29
280
     1
102
RTVSPost2010PropOp29
 70
     1
102
RTVSPost2010Prop30
280
     1
102
RTVSPost2010PropOp30
 70
     1
102
RTVSPost2010Prop31
280
     0
102
RTVSPost2010PropOp31
 70
     1
102
RTVSPost2010Prop32
280
     0
102
RTVSPost2010PropOp32
 70
     1
102
RTVSPost2010Prop33
280
     0
102
RTVSPost2010PropOp33
 70
     1
102
RTVSPost2010Prop34
280
     0
102
RTVSPost2010PropOp34
 70
     1
102
RTVSPost2010Prop35
280
     0
102
RTVSPost2010PropOp35
 70
     1
102
RTVSPost2010Prop36
280
     0
102
RTVSPost2010PropOp36
 70
     1
102
RTVSPost2010Prop37
 90
       50
102
RTVSPost2010PropOp37
 70
     1
102
RTVSPost2010Prop38
140
0.0
102
RTVSPost2010PropOp38
 70
     1
102
RTVSPost2010Prop39
140
1.0
102
RTVSPost2010PropOp39
 70
     1
102
RTVSPost2010Prop40
 90
        0
102
RTVSPost2010PropOp40
 70
     1
102
RTVSPost2010Prop41ColorIndex
 90
       18
102
RTVSPost2010Prop41ColorRGB
 90
        0
102
RTVSPost2010PropOp41
 70
     1
102
RTVSPost2010Prop42
 90
       50
102
RTVSPost2010PropOp42
 70
     1
102
RTVSPost2010Prop43
 90
        3
102
RTVSPost2010PropOp43
 70
     1
102
RTVSPost2010Prop44ColorIndex
 90
        5
102
RTVSPost2010Prop44ColorRGB
 90
      255
102
RTVSPost2010PropOp44
 70
     1
102
RTVSPost2010Prop45
280
     0
102
RTVSPost2010PropOp45
 70
     1
102
RTVSPost2010Prop46
 90
       50
102
RTVSPost2010PropOp46
 70
     1
102
RTVSPost2010Prop47
 90
       50
102
RTVSPost2010PropOp47
 70
     1
102
RTVSPost2010Prop48
 90
       50
102
RTVSPost2010PropOp48
 70
     1
102
RTVSPost2010Prop49
280
     0
102
RTVSPost2010PropOp49
 70
     1
102
RTVSPost2010Prop50
 90
       50
102
RTVSPost2010PropOp50
 70
     1
102
RTVSPost2010Prop51ColorIndex
 90
      256
102
RTVSPost2010Prop51ColorRGB
 90
-16777216
102
RTVSPost2010PropOp51
 70
     0
102
RTVSPost2010Prop52
140
1.0
102
RTVSPost2010PropOp52
 70
     0
102
RTVSPost2010Prop53
 90
        2
102
RTVSPost2010PropOp53
 70
     1
102
RTVSPost2010Prop54
  1
strokes_ogs.tif
102
RTVSPost2010PropOp54
 70
     1
102
RTVSPost2010Prop55
280
     0
102
RTVSPost2010PropOp55
 70
     1
102
RTVSPost2010Prop56
140
1.0
102
RTVSPost2010PropOp56
 70
     1
102
RTVSPost2010Prop57
140
1.0
102
RTVSPost2010PropOp57
 70
     1
  0
XRECORD
  5
2DF
102
{ACAD_REACTORS
330
2DE
102
}
330
2DE
100
AcDbXrecord
280
     1
102
RTVSPropertyOp0
 70
     1
102
RTVSPropertyOp1
 70
     1
102
RTVSPropertyOp2
 70
     1
102
RTVSPropertyOp3
 70
     1
102
RTVSPropertyOp4
 70
     1
102
RTVSPropertyOp5
 70
     1
102
RTVSPropertyOp6
 70
     1
102
RTVSPropertyOp7
 70
     1
102
RTVSPropertyOp8
 70
     1
102
RTVSPropertyOp9
 70
     1
102
RTVSPropertyOp10
 70
     1
102
RTVSPropertyOp11
 70
     1
102
RTVSPropertyOp12
 70
     1
102
RTVSPropertyOp13
 70
     1
102
RTVSPropertyOp14
 70
     1
102
RTVSPropertyOp15
 70
     1
102
RTVSPropertyOp16
 70
     1
102
RTVSPropertyOp17
 70
     1
102
RTVSPropertyOp18
 70
     1
102
RTVSPropertyOp19
 70
     1
102
RTVSPropertyOp20
 70
     1
102
RTVSPropertyOp21
 70
     1
102
RTVSPropertyOp22
 70
     1
102
RTVSPropertyOp23
 70
     1
102
RTVSPropertyOp24
 70
     1
102
RTVSPropertyOp25
 70
     1
102
RTVSPropertyOp26
 70
     1
102
RTVSPropertyOp27
 70
     1
102
RTVSPropertyOp28
 70
     1
102
RTVSPropertyOp29
 70
     1
102
RTVSPropertyOp30
 70
     1
102
RTVSPropertyOp31
 70
     1
102
RTVSPropertyOp32
 70
     1
102
RTVSPropertyOp33
 70
     1
102
RTVSPropertyOp34
 70
     1
102
RTVSPropertyOp35
 70
     1
102
RTVSPropertyOp36
 70
     1
102
RTVSPropertyOp37
 70
     1
102
RTVSPropertyOp38
 70
     1
102
RTVSPropertyOp39
 70
     1
102
RTVSPropertyOp40
 70
     1
102
RTVSPropertyOp41
 70
     1
102
RTVSPropertyOp42
 70
     1
102
RTVSPropertyOp43
 70
     1
102
RTVSPropertyOp44
 70
     1
102
RTVSPropertyOp45
 70
     1
102
RTVSPropertyOp46
 70
     1
102
RTVSPropertyOp47
 70
     1
102
RTVSPropertyOp48
 70
     1
102
RTVSPropertyOp49
 70
     1
102
RTVSPropertyOp50
 70
     1
102
RTVSPropertyOp51
 70
     0
102
RTVSPropertyOp52
 70
     0
102
RTVSPropertyOp53
 70
     1
102
RTVSPropertyOp54
 70
     1
102
RTVSPropertyOp55
 70
     1
102
RTVSPropertyOp56
 70
     1
102
RTVSPropertyOp57
 70
     1
102
RTVSPost2010Prop28
280
     0
102
RTVSPost2010PropOp28
 70
     1
102
RTVSPost2010Prop29
280
     1
102
RTVSPost2010PropOp29
 70
     1
102
RTVSPost2010Prop30
280
     1
102
RTVSPost2010PropOp30
 70
     1
102
RTVSPost2010Prop31
280
     0
102
RTVSPost2010PropOp31
 70
     1
102
RTVSPost2010Prop32
280
     0
102
RTVSPost2010PropOp32
 70
     1
102
RTVSPost2010Prop33
280
     0
102
RTVSPost2010PropOp33
 70
     1
102
RTVSPost2010Prop34
280
     0
102
RTVSPost2010PropOp34
 70
     1
102
RTVSPost2010Prop35
280
     0
102
RTVSPost2010PropOp35
 70
     1
102
RTVSPost2010Prop36
280
     0
102
RTVSPost2010PropOp36
 70
     1
102
RTVSPost2010Prop37
 90
       50
102
RTVSPost2010PropOp37
 70
     1
102
RTVSPost2010Prop38
140
0.0
102
RTVSPost2010PropOp38
 70
     1
102
RTVSPost2010Prop39
140
1.0
102
RTVSPost2010PropOp39
 70
     1
102
RTVSPost2010Prop40
 90
        0
102
RTVSPost2010PropOp40
 70
     1
102
RTVSPost2010Prop41ColorIndex
 90
       18
102
RTVSPost2010Prop41ColorRGB
 90
        0
102
RTVSPost2010PropOp41
 70
     1
102
RTVSPost2010Prop42
 90
       50
102
RTVSPost2010PropOp42
 70
     1
102
RTVSPost2010Prop43
 90
        3
102
RTVSPost2010PropOp43
 70
     1
102
RTVSPost2010Prop44ColorIndex
 90
        5
102
RTVSPost2010Prop44ColorRGB
 90
      255
102
RTVSPost2010PropOp44
 70
     1
102
RTVSPost2010Prop45
280
     0
102
RTVSPost2010PropOp45
 70
     1
102
RTVSPost2010Prop46
 90
       50
102
RTVSPost2010PropOp46
 70
     1
102
RTVSPost2010Prop47
 90
       50
102
RTVSPost2010PropOp47
 70
     1
102
RTVSPost2010Prop48
 90
       50
102
RTVSPost2010PropOp48
 70
     1
102
RTVSPost2010Prop49
280
     0
102
RTVSPost2010PropOp49
 70
     1
102
RTVSPost2010Prop50
 90
       50
102
RTVSPost2010PropOp50
 70
     1
102
RTVSPost2010Prop51ColorIndex
 90
      256
102
RTVSPost2010Prop51ColorRGB
 90
-16777216
102
RTVSPost2010PropOp51
 70
     0
102
RTVSPost2010Prop52
140
1.0
102
RTVSPost2010PropOp52
 70
     0
102
RTVSPost2010Prop53
 90
        2
102
RTVSPost2010PropOp53
 70
     1
102
RTVSPost2010Prop54
  1
strokes_ogs.tif
102
RTVSPost2010PropOp54
 70
     1
102
RTVSPost2010Prop55
280
     0
102
RTVSPost2010PropOp55
 70
     1
102
RTVSPost2010Prop56
140
1.0
102
RTVSPost2010PropOp56
 70
     1
102
RTVSPost2010Prop57
140
1.0
102
RTVSPost2010PropOp57
 70
     1
  0
XRECORD
  5
2D1
102
{ACAD_REACTORS
330
2D0
102
}
330
2D0
100
AcDbXrecord
280
     1
102
RTVSPropertyOp0
 70
     1
102
RTVSPropertyOp1
 70
     1
102
RTVSPropertyOp2
 70
     1
102
RTVSPropertyOp3
 70
     1
102
RTVSPropertyOp4
 70
     1
102
RTVSPropertyOp5
 70
     1
102
RTVSPropertyOp6
 70
     1
102
RTVSPropertyOp7
 70
     1
102
RTVSPropertyOp8
 70
     1
102
RTVSPropertyOp9
 70
     1
102
RTVSPropertyOp10
 70
     1
102
RTVSPropertyOp11
 70
     1
102
RTVSPropertyOp12
 70
     1
102
RTVSPropertyOp13
 70
     1
102
RTVSPropertyOp14
 70
     1
102
RTVSPropertyOp15
 70
     1
102
RTVSPropertyOp16
 70
     1
102
RTVSPropertyOp17
 70
     1
102
RTVSPropertyOp18
 70
     1
102
RTVSPropertyOp19
 70
     1
102
RTVSPropertyOp20
 70
     1
102
RTVSPropertyOp21
 70
     1
102
RTVSPropertyOp22
 70
     1
102
RTVSPropertyOp23
 70
     1
102
RTVSPropertyOp24
 70
     1
102
RTVSPropertyOp25
 70
     1
102
RTVSPropertyOp26
 70
     1
102
RTVSPropertyOp27
 70
     1
102
RTVSPropertyOp28
 70
     1
102
RTVSPropertyOp29
 70
     1
102
RTVSPropertyOp30
 70
     1
102
RTVSPropertyOp31
 70
     1
102
RTVSPropertyOp32
 70
     1
102
RTVSPropertyOp33
 70
     1
102
RTVSPropertyOp34
 70
     1
102
RTVSPropertyOp35
 70
     1
102
RTVSPropertyOp36
 70
     1
102
RTVSPropertyOp37
 70
     1
102
RTVSPropertyOp38
 70
     1
102
RTVSPropertyOp39
 70
     1
102
RTVSPropertyOp40
 70
     1
102
RTVSPropertyOp41
 70
     1
102
RTVSPropertyOp42
 70
     1
102
RTVSPropertyOp43
 70
     1
102
RTVSPropertyOp44
 70
     1
102
RTVSPropertyOp45
 70
     1
102
RTVSPropertyOp46
 70
     1
102
RTVSPropertyOp47
 70
     1
102
RTVSPropertyOp48
 70
     1
102
RTVSPropertyOp49
 70
     1
102
RTVSPropertyOp50
 70
     1
102
RTVSPropertyOp51
 70
     0
102
RTVSPropertyOp52
 70
     0
102
RTVSPropertyOp53
 70
     1
102
RTVSPropertyOp54
 70
     1
102
RTVSPropertyOp55
 70
     1
102
RTVSPropertyOp56
 70
     1
102
RTVSPropertyOp57
 70
     1
102
RTVSPost2010Prop28
280
     0
102
RTVSPost2010PropOp28
 70
     1
102
RTVSPost2010Prop29
280
     1
102
RTVSPost2010PropOp29
 70
     1
102
RTVSPost2010Prop30
280
     1
102
RTVSPost2010PropOp30
 70
     1
102
RTVSPost2010Prop31
280
     0
102
RTVSPost2010PropOp31
 70
     1
102
RTVSPost2010Prop32
280
     0
102
RTVSPost2010PropOp32
 70
     1
102
RTVSPost2010Prop33
280
     0
102
RTVSPost2010PropOp33
 70
     1
102
RTVSPost2010Prop34
280
     0
102
RTVSPost2010PropOp34
 70
     1
102
RTVSPost2010Prop35
280
     0
102
RTVSPost2010PropOp35
 70
     1
102
RTVSPost2010Prop36
280
     0
102
RTVSPost2010PropOp36
 70
     1
102
RTVSPost2010Prop37
 90
       50
102
RTVSPost2010PropOp37
 70
     1
102
RTVSPost2010Prop38
140
0.0
102
RTVSPost2010PropOp38
 70
     1
102
RTVSPost2010Prop39
140
1.0
102
RTVSPost2010PropOp39
 70
     1
102
RTVSPost2010Prop40
 90
        0
102
RTVSPost2010PropOp40
 70
     1
102
RTVSPost2010Prop41ColorIndex
 90
       18
102
RTVSPost2010Prop41ColorRGB
 90
        0
102
RTVSPost2010PropOp41
 70
     1
102
RTVSPost2010Prop42
 90
       50
102
RTVSPost2010PropOp42
 70
     1
102
RTVSPost2010Prop43
 90
        3
102
RTVSPost2010PropOp43
 70
     1
102
RTVSPost2010Prop44ColorIndex
 90
        5
102
RTVSPost2010Prop44ColorRGB
 90
      255
102
RTVSPost2010PropOp44
 70
     1
102
RTVSPost2010Prop45
280
     0
102
RTVSPost2010PropOp45
 70
     1
102
RTVSPost2010Prop46
 90
       50
102
RTVSPost2010PropOp46
 70
     1
102
RTVSPost2010Prop47
 90
       50
102
RTVSPost2010PropOp47
 70
     1
102
RTVSPost2010Prop48
 90
       50
102
RTVSPost2010PropOp48
 70
     1
102
RTVSPost2010Prop49
280
     0
102
RTVSPost2010PropOp49
 70
     1
102
RTVSPost2010Prop50
 90
       50
102
RTVSPost2010PropOp50
 70
     1
102
RTVSPost2010Prop51ColorIndex
 90
      256
102
RTVSPost2010Prop51ColorRGB
 90
-16777216
102
RTVSPost2010PropOp51
 70
     0
102
RTVSPost2010Prop52
140
1.0
102
RTVSPost2010PropOp52
 70
     0
102
RTVSPost2010Prop53
 90
        2
102
RTVSPost2010PropOp53
 70
     1
102
RTVSPost2010Prop54
  1
strokes_ogs.tif
102
RTVSPost2010PropOp54
 70
     1
102
RTVSPost2010Prop55
280
     0
102
RTVSPost2010PropOp55
 70
     1
102
RTVSPost2010Prop56
140
1.0
102
RTVSPost2010PropOp56
 70
     1
102
RTVSPost2010Prop57
140
1.0
102
RTVSPost2010PropOp57
 70
     1
  0
XRECORD
  5
2F1
102
{ACAD_REACTORS
330
2F0
102
}
330
2F0
100
AcDbXrecord
280
     1
102
RTVSPropertyOp0
 70
     1
102
RTVSPropertyOp1
 70
     1
102
RTVSPropertyOp2
 70
     1
102
RTVSPropertyOp3
 70
     1
102
RTVSPropertyOp4
 70
     1
102
RTVSPropertyOp5
 70
     1
102
RTVSPropertyOp6
 70
     1
102
RTVSPropertyOp7
 70
     1
102
RTVSPropertyOp8
 70
     1
102
RTVSPropertyOp9
 70
     1
102
RTVSPropertyOp10
 70
     1
102
RTVSPropertyOp11
 70
     1
102
RTVSPropertyOp12
 70
     1
102
RTVSPropertyOp13
 70
     1
102
RTVSPropertyOp14
 70
     1
102
RTVSPropertyOp15
 70
     1
102
RTVSPropertyOp16
 70
     1
102
RTVSPropertyOp17
 70
     1
102
RTVSPropertyOp18
 70
     1
102
RTVSPropertyOp19
 70
     1
102
RTVSPropertyOp20
 70
     1
102
RTVSPropertyOp21
 70
     1
102
RTVSPropertyOp22
 70
     1
102
RTVSPropertyOp23
 70
     1
102
RTVSPropertyOp24
 70
     1
102
RTVSPropertyOp25
 70
     1
102
RTVSPropertyOp26
 70
     1
102
RTVSPropertyOp27
 70
     1
102
RTVSPropertyOp28
 70
     1
102
RTVSPropertyOp29
 70
     1
102
RTVSPropertyOp30
 70
     1
102
RTVSPropertyOp31
 70
     1
102
RTVSPropertyOp32
 70
     1
102
RTVSPropertyOp33
 70
     1
102
RTVSPropertyOp34
 70
     1
102
RTVSPropertyOp35
 70
     1
102
RTVSPropertyOp36
 70
     1
102
RTVSPropertyOp37
 70
     1
102
RTVSPropertyOp38
 70
     1
102
RTVSPropertyOp39
 70
     1
102
RTVSPropertyOp40
 70
     1
102
RTVSPropertyOp41
 70
     1
102
RTVSPropertyOp42
 70
     1
102
RTVSPropertyOp43
 70
     1
102
RTVSPropertyOp44
 70
     1
102
RTVSPropertyOp45
 70
     1
102
RTVSPropertyOp46
 70
     1
102
RTVSPropertyOp47
 70
     1
102
RTVSPropertyOp48
 70
     1
102
RTVSPropertyOp49
 70
     1
102
RTVSPropertyOp50
 70
     1
102
RTVSPropertyOp51
 70
     0
102
RTVSPropertyOp52
 70
     0
102
RTVSPropertyOp53
 70
     1
102
RTVSPropertyOp54
 70
     1
102
RTVSPropertyOp55
 70
     1
102
RTVSPropertyOp56
 70
     1
102
RTVSPropertyOp57
 70
     1
102
RTVSPost2010Prop28
280
     0
102
RTVSPost2010PropOp28
 70
     1
102
RTVSPost2010Prop29
280
     1
102
RTVSPost2010PropOp29
 70
     1
102
RTVSPost2010Prop30
280
     1
102
RTVSPost2010PropOp30
 70
     1
102
RTVSPost2010Prop31
280
     0
102
RTVSPost2010PropOp31
 70
     1
102
RTVSPost2010Prop32
280
     0
102
RTVSPost2010PropOp32
 70
     1
102
RTVSPost2010Prop33
280
     0
102
RTVSPost2010PropOp33
 70
     1
102
RTVSPost2010Prop34
280
     0
102
RTVSPost2010PropOp34
 70
     1
102
RTVSPost2010Prop35
280
     0
102
RTVSPost2010PropOp35
 70
     1
102
RTVSPost2010Prop36
280
     0
102
RTVSPost2010PropOp36
 70
     1
102
RTVSPost2010Prop37
 90
       50
102
RTVSPost2010PropOp37
 70
     1
102
RTVSPost2010Prop38
140
0.0
102
RTVSPost2010PropOp38
 70
     1
102
RTVSPost2010Prop39
140
1.0
102
RTVSPost2010PropOp39
 70
     1
102
RTVSPost2010Prop40
 90
        0
102
RTVSPost2010PropOp40
 70
     1
102
RTVSPost2010Prop41ColorIndex
 90
       18
102
RTVSPost2010Prop41ColorRGB
 90
        0
102
RTVSPost2010PropOp41
 70
     1
102
RTVSPost2010Prop42
 90
       50
102
RTVSPost2010PropOp42
 70
     1
102
RTVSPost2010Prop43
 90
        3
102
RTVSPost2010PropOp43
 70
     1
102
RTVSPost2010Prop44ColorIndex
 90
        5
102
RTVSPost2010Prop44ColorRGB
 90
      255
102
RTVSPost2010PropOp44
 70
     1
102
RTVSPost2010Prop45
280
     0
102
RTVSPost2010PropOp45
 70
     1
102
RTVSPost2010Prop46
 90
       50
102
RTVSPost2010PropOp46
 70
     1
102
RTVSPost2010Prop47
 90
       50
102
RTVSPost2010PropOp47
 70
     1
102
RTVSPost2010Prop48
 90
       50
102
RTVSPost2010PropOp48
 70
     1
102
RTVSPost2010Prop49
280
     0
102
RTVSPost2010PropOp49
 70
     1
102
RTVSPost2010Prop50
 90
       50
102
RTVSPost2010PropOp50
 70
     1
102
RTVSPost2010Prop51ColorIndex
 90
      256
102
RTVSPost2010Prop51ColorRGB
 90
-16777216
102
RTVSPost2010PropOp51
 70
     0
102
RTVSPost2010Prop52
140
1.0
102
RTVSPost2010PropOp52
 70
     0
102
RTVSPost2010Prop53
 90
        2
102
RTVSPost2010PropOp53
 70
     1
102
RTVSPost2010Prop54
  1
strokes_ogs.tif
102
RTVSPost2010PropOp54
 70
     1
102
RTVSPost2010Prop55
280
     0
102
RTVSPost2010PropOp55
 70
     1
102
RTVSPost2010Prop56
140
1.0
102
RTVSPost2010PropOp56
 70
     1
102
RTVSPost2010Prop57
140
1.0
102
RTVSPost2010PropOp57
 70
     1
  0
ENDSEC
  0
EOF
